  0
SECTION
  2
HEADER
  9
$ACADVER
  1
AC1015
  9
$ACADMAINTVER
 70
     6
  9
$DWGCODEPAGE
  3
ANSI_1254
  9
$INSBASE
 10
0.0
 20
0.0
 30
0.0
  9
$EXTMIN
 10
0.0
 20
0.0
 30
0.0
  9
$EXTMAX
 10
279.4
 20
215.9
 30
0.0
  9
$LIMMIN
 10
0.0
 20
0.0
  9
$LIMMAX
 10
279.4
 20
215.9
  9
$ORTHOMODE
 70
     0
  9
$REGENMODE
 70
     1
  9
$FILLMODE
 70
     1
  9
$QTEXTMODE
 70
     0
  9
$MIRRTEXT
 70
     1
  9
$LTSCALE
 40
1.0
  9
$ATTMODE
 70
     1
  9
$TEXTSIZE
 40
3.5
  9
$TRACEWID
 40
1.0
  9
$TEXTSTYLE
  7
Standard
  9
$CLAYER
  8
0
  9
$CELTYPE
  6
ByLayer
  9
$CECOLOR
 62
   256
  9
$CELTSCALE
 40
1.0
  9
$DISPSILH
 70
     0
  9
$DIMSCALE
 40
1.0
  9
$DIMASZ
 40
3.5
  9
$DIMEXO
 40
1.0
  9
$DIMDLI
 40
3.75
  9
$DIMRND
 40
0.0
  9
$DIMDLE
 40
0.0
  9
$DIMEXE
 40
1.0
  9
$DIMTP
 40
0.0
  9
$DIMTM
 40
0.0
  9
$DIMTXT
 40
3.5
  9
$DIMCEN
 40
2.5
  9
$DIMTSZ
 40
0.0
  9
$DIMTOL
 70
     0
  9
$DIMLIM
 70
     0
  9
$DIMTIH
 70
     1
  9
$DIMTOH
 70
     1
  9
$DIMSE1
 70
     0
  9
$DIMSE2
 70
     0
  9
$DIMTAD
 70
     1
  9
$DIMZIN
 70
     0
  9
$DIMBLK
  1

  9
$DIMASO
 70
     1
  9
$DIMSHO
 70
     1
  9
$DIMPOST
  1

  9
$DIMAPOST
  1

  9
$DIMALT
 70
     0
  9
$DIMALTD
 70
     3
  9
$DIMALTF
 40
0.0393700787
  9
$DIMLFAC
 40
1.0
  9
$DIMTOFL
 70
     1
  9
$DIMTVP
 40
0.0
  9
$DIMTIX
 70
     0
  9
$DIMSOXD
 70
     0
  9
$DIMSAH
 70
     0
  9
$DIMBLK1
  1

  9
$DIMBLK2
  1

  9
$DIMSTYLE
  2
ISO-25
  9
$DIMCLRD
 70
     0
  9
$DIMCLRE
 70
     0
  9
$DIMCLRT
 70
     0
  9
$DIMTFAC
 40
1.0
  9
$DIMGAP
 40
1.524
  9
$DIMJUST
 70
     0
  9
$DIMSD1
 70
     0
  9
$DIMSD2
 70
     0
  9
$DIMTOLJ
 70
     0
  9
$DIMTZIN
 70
     0
  9
$DIMALTZ
 70
     0
  9
$DIMALTTZ
 70
     0
  9
$DIMUPT
 70
     0
  9
$DIMDEC
 70
     2
  9
$DIMTDEC
 70
     2
  9
$DIMALTU
 70
     2
  9
$DIMALTTD
 70
     3
  9
$DIMTXSTY
  7
Standard
  9
$DIMAUNIT
 70
     0
  9
$DIMADEC
 70
     2
  9
$DIMALTRND
 40
0.0
  9
$DIMAZIN
 70
     0
  9
$DIMDSEP
 70
    44
  9
$DIMATFIT
 70
     3
  9
$DIMFRAC
 70
     0
  9
$DIMLDRBLK
  1

  9
$DIMLUNIT
 70
     2
  9
$DIMLWD
 70
    -2
  9
$DIMLWE
 70
    -2
  9
$DIMTMOVE
 70
     0
  9
$LUNITS
 70
     2
  9
$LUPREC
 70
     2
  9
$SKETCHINC
 40
1.0
  9
$FILLETRAD
 40
10.0
  9
$AUNITS
 70
     0
  9
$AUPREC
 70
     2
  9
$MENU
  1
.
  9
$ELEVATION
 40
0.0
  9
$PELEVATION
 40
0.0
  9
$THICKNESS
 40
0.0
  9
$LIMCHECK
 70
     0
  9
$CHAMFERA
 40
0.0
  9
$CHAMFERB
 40
0.0
  9
$CHAMFERC
 40
0.0
  9
$CHAMFERD
 40
0.0
  9
$SKPOLY
 70
     0
  9
$TDCREATE
 40
2460710.517980915
  9
$TDUCREATE
 40
2460710.392980915
  9
$TDUPDATE
 40
2460710.517981134
  9
$TDUUPDATE
 40
2460710.392981134
  9
$TDINDWG
 40
0.0000000116
  9
$TDUSRTIMER
 40
0.0000000116
  9
$USRTIMER
 70
     1
  9
$ANGBASE
 50
0.0
  9
$ANGDIR
 70
     0
  9
$PDMODE
 70
     0
  9
$PDSIZE
 40
-1.0
  9
$PLINEWID
 40
0.0
  9
$SPLFRAME
 70
     0
  9
$SPLINETYPE
 70
     6
  9
$SPLINESEGS
 70
     8
  9
$HANDSEED
  5
12F
  9
$SURFTAB1
 70
     6
  9
$SURFTAB2
 70
     6
  9
$SURFTYPE
 70
     6
  9
$SURFU
 70
     6
  9
$SURFV
 70
     6
  9
$UCSBASE
  2

  9
$UCSNAME
  2

  9
$UCSORG
 10
0.0
 20
0.0
 30
0.0
  9
$UCSXDIR
 10
1.0
 20
0.0
 30
0.0
  9
$UCSYDIR
 10
0.0
 20
1.0
 30
0.0
  9
$UCSORTHOREF
  2

  9
$UCSORTHOVIEW
 70
     0
  9
$UCSORGTOP
 10
0.0
 20
0.0
 30
0.0
  9
$UCSORGBOTTOM
 10
0.0
 20
0.0
 30
0.0
  9
$UCSORGLEFT
 10
0.0
 20
0.0
 30
0.0
  9
$UCSORGRIGHT
 10
0.0
 20
0.0
 30
0.0
  9
$UCSORGFRONT
 10
0.0
 20
0.0
 30
0.0
  9
$UCSORGBACK
 10
0.0
 20
0.0
 30
0.0
  9
$PUCSBASE
  2

  9
$PUCSNAME
  2

  9
$PUCSORG
 10
0.0
 20
0.0
 30
0.0
  9
$PUCSXDIR
 10
1.0
 20
0.0
 30
0.0
  9
$PUCSYDIR
 10
0.0
 20
1.0
 30
0.0
  9
$PUCSORTHOREF
  2

  9
$PUCSORTHOVIEW
 70
     0
  9
$PUCSORGTOP
 10
0.0
 20
0.0
 30
0.0
  9
$PUCSORGBOTTOM
 10
0.0
 20
0.0
 30
0.0
  9
$PUCSORGLEFT
 10
0.0
 20
0.0
 30
0.0
  9
$PUCSORGRIGHT
 10
0.0
 20
0.0
 30
0.0
  9
$PUCSORGFRONT
 10
0.0
 20
0.0
 30
0.0
  9
$PUCSORGBACK
 10
0.0
 20
0.0
 30
0.0
  9
$USERI1
 70
     0
  9
$USERI2
 70
     0
  9
$USERI3
 70
     0
  9
$USERI4
 70
     0
  9
$USERI5
 70
     0
  9
$USERR1
 40
0.0
  9
$USERR2
 40
0.0
  9
$USERR3
 40
0.0
  9
$USERR4
 40
0.0
  9
$USERR5
 40
0.0
  9
$WORLDVIEW
 70
     1
  9
$SHADEDGE
 70
     3
  9
$SHADEDIF
 70
    70
  9
$TILEMODE
 70
     1
  9
$MAXACTVP
 70
    64
  9
$PINSBASE
 10
0.0
 20
0.0
 30
0.0
  9
$PLIMCHECK
 70
     0
  9
$PEXTMIN
 10
1.0000000000E+20
 20
1.0000000000E+20
 30
1.0000000000E+20
  9
$PEXTMAX
 10
-1.0000000000E+20
 20
-1.0000000000E+20
 30
-1.0000000000E+20
  9
$PLIMMIN
 10
0.0
 20
0.0
  9
$PLIMMAX
 10
420.0
 20
297.0
  9
$UNITMODE
 70
     0
  9
$VISRETAIN
 70
     1
  9
$PLINEGEN
 70
     0
  9
$PSLTSCALE
 70
     1
  9
$TREEDEPTH
 70
  3020
  9
$CMLSTYLE
  2
Standard
  9
$CMLJUST
 70
     0
  9
$CMLSCALE
 40
20.0
  9
$PROXYGRAPHICS
 70
     1
  9
$MEASUREMENT
 70
     1
  9
$CELWEIGHT
370
    -1
  9
$ENDCAPS
280
     0
  9
$JOINSTYLE
280
     0
  9
$LWDISPLAY
290
     1
  9
$INSUNITS
 70
     4
  9
$HYPERLINKBASE
  1

  9
$STYLESHEET
  1

  9
$XEDIT
290
     1
  9
$CEPSNTYPE
380
     0
  9
$PSTYLEMODE
290
     1
  9
$FINGERPRINTGUID
  2
{1ea9ebcc-37e1-42b4-9c14-69d8dec10087}
  9
$VERSIONGUID
  2
{FAEB1C32-E019-11D5-929B-00C0DF256EC4}
  9
$EXTNAMES
290
     1
  9
$PSVPSCALE
 40
0.0
  9
$OLESTARTUP
290
     0
  0
ENDSEC
  0
SECTION
  2
CLASSES
  0
CLASS
  1
ACDBDICTIONARYWDFLT
  2
AcDbDictionaryWithDefault
  3
ObjectDBX Classes
 90
        0
280
     0
281
     0
  0
CLASS
  1
VISUALSTYLE
  2
AcDbVisualStyle
  3
ObjectDBX Classes
 90
     4095
280
     0
281
     0
  0
CLASS
  1
MATERIAL
  2
AcDbMaterial
  3
ObjectDBX Classes
 90
     1153
280
     0
281
     0
  0
CLASS
  1
SCALE
  2
AcDbScale
  3
ObjectDBX Classes
 90
     1153
280
     0
281
     0
  0
CLASS
  1
TABLESTYLE
  2
AcDbTableStyle
  3
ObjectDBX Classes
 90
     4095
280
     0
281
     0
  0
CLASS
  1
MLEADERSTYLE
  2
AcDbMLeaderStyle
  3
ACDB_MLEADERSTYLE_CLASS
 90
     4095
280
     0
281
     0
  0
CLASS
  1
SUN
  2
AcDbSun
  3
SCENEOE
 90
     1153
280
     0
281
     0
  0
CLASS
  1
ACDBPLACEHOLDER
  2
AcDbPlaceHolder
  3
ObjectDBX Classes
 90
        0
280
     0
281
     0
  0
CLASS
  1
LAYOUT
  2
AcDbLayout
  3
ObjectDBX Classes
 90
        0
280
     0
281
     0
  0
ENDSEC
  0
SECTION
  2
TABLES
  0
TABLE
  2
VPORT
  5
8
330
0
100
AcDbSymbolTable
 70
     1
  0
VPORT
  5
29
330
8
100
AcDbSymbolTableRecord
100
AcDbViewportTableRecord
  2
*Active
 70
     0
 10
0.0
 20
0.0
 11
1.0
 21
1.0
 12
139.7
 22
107.95
 13
0.0
 23
0.0
 14
10.0
 24
10.0
 15
10.0
 25
10.0
 16
0.0
 26
0.0
 36
1.0
 17
0.0
 27
0.0
 37
0.0
 40
215.9
 41
1.2941176471
 42
50.0
 43
0.0
 44
0.0
 50
0.0
 51
0.0
 71
     0
 72
  2000
 73
     1
 74
     3
 75
     0
 76
     0
 77
     0
 78
     0
281
     0
 65
     1
110
0.0
120
0.0
130
0.0
111
1.0
121
0.0
131
0.0
112
0.0
122
1.0
132
0.0
 79
     0
146
0.0
  0
ENDTAB
  0
TABLE
  2
LTYPE
  5
5
330
0
100
AcDbSymbolTable
 70
     6
  0
LTYPE
  5
14
330
5
100
AcDbSymbolTableRecord
100
AcDbLinetypeTableRecord
  2
ByBlock
 70
     0
  3

 72
    65
 73
     0
 40
0.0
  0
LTYPE
  5
15
330
5
100
AcDbSymbolTableRecord
100
AcDbLinetypeTableRecord
  2
ByLayer
 70
     0
  3

 72
    65
 73
     0
 40
0.0
  0
LTYPE
  5
16
330
5
100
AcDbSymbolTableRecord
100
AcDbLinetypeTableRecord
  2
Continuous
 70
     0
  3
Solid line
 72
    65
 73
     0
 40
0.0
  0
LTYPE
  5
6E
330
5
100
AcDbSymbolTableRecord
100
AcDbLinetypeTableRecord
  2
HIDDEN
 70
     0
  3
Hidden __ __ __ __ __ __ __ __ __ __ __ __ __ __
 72
    65
 73
     2
 40
1.905
 49
1.27
 74
     0
 49
-0.635
 74
     0
  0
LTYPE
  5
6F
330
5
100
AcDbSymbolTableRecord
100
AcDbLinetypeTableRecord
  2
PHANTOM
 70
     0
  3
Phantom ______  __  __  ______  __  __  ______
 72
    65
 73
     6
 40
12.7
 49
6.35
 74
     0
 49
-1.27
 74
     0
 49
1.27
 74
     0
 49
-1.27
 74
     0
 49
1.27
 74
     0
 49
-1.27
 74
     0
  0
LTYPE
  5
70
330
5
100
AcDbSymbolTableRecord
100
AcDbLinetypeTableRecord
  2
CENTER
 70
     0
  3
Center ____ _ ____ _ ____ _ ____ _ ____ _ ____
 72
    65
 73
     4
 40
10.16
 49
6.35
 74
     0
 49
-1.27
 74
     0
 49
1.27
 74
     0
 49
-1.27
 74
     0
  0
LTYPE
  5
71
330
5
100
AcDbSymbolTableRecord
100
AcDbLinetypeTableRecord
  2
CENTERX2
 70
     0
  3
Center (2x) ________  __  ________  __  _____
 72
    65
 73
     4
 40
20.32
 49
12.7
 74
     0
 49
-2.54
 74
     0
 49
2.54
 74
     0
 49
-2.54
 74
     0
  0
LTYPE
  5
72
330
5
100
AcDbSymbolTableRecord
100
AcDbLinetypeTableRecord
  2
DOT2
 70
     0
  3
Dot (.5x) ........................................
 72
    65
 73
     2
 40
0.635
 49
0.0
 74
     0
 49
-0.635
 74
     0
  0
ENDTAB
  0
TABLE
  2
LAYER
  5
2
330
0
100
AcDbSymbolTable
 70
    17
  0
LAYER
  5
10
330
2
100
AcDbSymbolTableRecord
100
AcDbLayerTableRecord
  2
0
 70
     0
 62
     7
  6
Continuous
370
    -3
390
F
  0
LAYER
  5
73
330
2
100
AcDbSymbolTableRecord
100
AcDbLayerTableRecord
  2
FORMAT
 70
     0
 62
     7
  6
Continuous
370
    -3
390
F
  0
LAYER
  5
74
330
2
100
AcDbSymbolTableRecord
100
AcDbLayerTableRecord
  2
YARDIMCI_GEOMETRI
 70
     0
 62
    -6
  6
Continuous
290
     0
370
    -3
390
F
  0
LAYER
  5
75
330
2
100
AcDbSymbolTableRecord
100
AcDbLayerTableRecord
  2
SAYFA_CERCEVESI
 70
     0
 62
     7
  6
Continuous
370
    25
390
F
  0
LAYER
  5
76
330
2
100
AcDbSymbolTableRecord
100
AcDbLayerTableRecord
  2
ANTET
 70
     0
 62
     7
  6
Continuous
370
    -3
390
F
  0
LAYER
  5
77
330
2
100
AcDbSymbolTableRecord
100
AcDbLayerTableRecord
  2
OLCU
 70
     0
 62
   150
  6
Continuous
370
    -3
390
F
  0
LAYER
  5
78
330
2
100
AcDbSymbolTableRecord
100
AcDbLayerTableRecord
  2
METIN
 70
     0
 62
    96
  6
Continuous
370
    -3
390
F
  0
LAYER
  5
79
330
2
100
AcDbSymbolTableRecord
100
AcDbLayerTableRecord
  2
BALON
 70
     0
 62
     5
  6
Continuous
370
    -3
390
F
  0
LAYER
  5
7A
330
2
100
AcDbSymbolTableRecord
100
AcDbLayerTableRecord
  2
VURGU
 70
     0
 62
     7
  6
Continuous
370
    -3
390
F
  0
LAYER
  5
7B
330
2
100
AcDbSymbolTableRecord
100
AcDbLayerTableRecord
  2
SILIK
 70
     0
 62
     7
  6
Continuous
370
    -3
390
F
  0
LAYER
  5
7C
330
2
100
AcDbSymbolTableRecord
100
AcDbLayerTableRecord
  2
MODEL
 70
     0
 62
     7
  6
Continuous
370
    -3
390
F
  0
LAYER
  5
7D
330
2
100
AcDbSymbolTableRecord
100
AcDbLayerTableRecord
  2
DETAYLANDıRMA
 70
     0
 62
   190
  6
Continuous
370
    -3
390
F
  0
LAYER
  5
7E
330
2
100
AcDbSymbolTableRecord
100
AcDbLayerTableRecord
  2
TOLERANS
 70
     0
 62
   230
  6
Continuous
370
    -3
390
F
  0
LAYER
  5
7F
330
2
100
AcDbSymbolTableRecord
100
AcDbLayerTableRecord
  2
MERKEZ_CIZGILERI
 70
     0
 62
    30
  6
Continuous
370
    -3
390
F
  0
LAYER
  5
80
330
2
100
AcDbSymbolTableRecord
100
AcDbLayerTableRecord
  2
KESIT-DETAY_CIZGILERI
 70
     0
 62
     7
  6
Continuous
370
    -3
390
F
  0
LAYER
  5
81
330
2
100
AcDbSymbolTableRecord
100
AcDbLayerTableRecord
  2
\U+041E\U+0421\U+0415\U+0412\U+042B\U+0415
 70
     0
 62
     7
  6
Continuous
370
    -3
390
F
  0
LAYER
  5
82
330
2
100
AcDbSymbolTableRecord
100
AcDbLayerTableRecord
  2
\U+0412\U+041E\U+0414\U+042F\U+041D\U+042B\U+0415_\U+0417\U+041D\U+0410\U+041A\U+0418
 70
     0
 62
    11
  6
Continuous
370
    -3
390
F
  0
ENDTAB
  0
TABLE
  2
STYLE
  5
3
330
0
100
AcDbSymbolTable
 70
     1
  0
STYLE
  5
11
330
3
100
AcDbSymbolTableRecord
100
AcDbTextStyleTableRecord
  2
Standard
 70
     0
 40
0.0
 41
1.0
 50
0.0
 71
     0
 42
3.5
  3
txt
  4

  0
ENDTAB
  0
TABLE
  2
VIEW
  5
6
330
0
100
AcDbSymbolTable
 70
     0
  0
ENDTAB
  0
TABLE
  2
UCS
  5
7
330
0
100
AcDbSymbolTable
 70
     0
  0
ENDTAB
  0
TABLE
  2
APPID
  5
9
330
0
100
AcDbSymbolTable
 70
     1
  0
APPID
  5
12
330
9
100
AcDbSymbolTableRecord
100
AcDbRegAppTableRecord
  2
ACAD
 70
     0
  0
ENDTAB
  0
TABLE
  2
DIMSTYLE
  5
A
330
0
100
AcDbSymbolTable
 70
     1
100
AcDbDimStyleTable
  0
DIMSTYLE
105
27
330
A
100
AcDbSymbolTableRecord
100
AcDbDimStyleTableRecord
  2
ISO-25
 70
     0
 41
2.5
 42
0.625
 43
3.75
 44
1.25
 73
     0
 74
     0
 77
     1
 78
     8
140
2.5
141
2.5
143
0.0393700787
147
0.625
171
     3
172
     1
178
     0
271
     2
272
     2
274
     3
278
    44
283
     0
284
     8
340
11
  0
ENDTAB
  0
TABLE
  2
BLOCK_RECORD
  5
1
330
0
100
AcDbSymbolTable
 70
     4
  0
BLOCK_RECORD
  5
1F
330
1
100
AcDbSymbolTableRecord
100
AcDbBlockTableRecord
  2
*Model_Space
340
22
  0
BLOCK_RECORD
  5
1B
330
1
100
AcDbSymbolTableRecord
100
AcDbBlockTableRecord
  2
*Paper_Space
340
1E
  0
BLOCK_RECORD
  5
23
330
1
100
AcDbSymbolTableRecord
100
AcDbBlockTableRecord
  2
*Paper_Space0
340
26
  0
BLOCK_RECORD
  5
8E
330
1
100
AcDbSymbolTableRecord
100
AcDbBlockTableRecord
  2
SW_CENTERMARKSYMBOL_0
340
0
102
{BLKREFS
331
99
102
}
  0
BLOCK_RECORD
  5
C8
330
1
100
AcDbSymbolTableRecord
100
AcDbBlockTableRecord
  2
SW_CENTERMARKSYMBOL_1
340
0
102
{BLKREFS
331
D3
102
}
  0
BLOCK_RECORD
  5
D4
330
1
100
AcDbSymbolTableRecord
100
AcDbBlockTableRecord
  2
SW_CENTERMARKSYMBOL_2
340
0
102
{BLKREFS
331
DF
102
}
  0
ENDTAB
  0
ENDSEC
  0
SECTION
  2
BLOCKS
  0
BLOCK
  5
20
330
1F
100
AcDbEntity
  8
0
100
AcDbBlockBegin
  2
*Model_Space
 70
     0
 10
0.0
 20
0.0
 30
0.0
  3
*Model_Space
  1

  0
ENDBLK
  5
21
330
1F
100
AcDbEntity
  8
0
100
AcDbBlockEnd
  0
BLOCK
  5
1C
330
1B
100
AcDbEntity
 67
     1
  8
0
100
AcDbBlockBegin
  2
*Paper_Space
 70
     0
 10
0.0
 20
0.0
 30
0.0
  3
*Paper_Space
  1

  0
ENDBLK
  5
1D
330
1B
100
AcDbEntity
 67
     1
  8
0
100
AcDbBlockEnd
  0
BLOCK
  5
24
330
23
100
AcDbEntity
  8
0
100
AcDbBlockBegin
  2
*Paper_Space0
 70
     0
 10
0.0
 20
0.0
 30
0.0
  3
*Paper_Space0
  1

  0
ENDBLK
  5
25
330
23
100
AcDbEntity
  8
0
100
AcDbBlockEnd
  0
BLOCK
  5
8F
330
8E
100
AcDbEntity
  8
0
100
AcDbBlockBegin
  2
SW_CENTERMARKSYMBOL_0
 70
     0
 10
0.0
 20
0.0
 30
0.0
  3
SW_CENTERMARKSYMBOL_0
  1

  0
LINE
  5
91
330
8E
100
AcDbEntity
  8
FORMAT
 62
     0
100
AcDbLine
 10
0.0
 20
0.0
 30
0.0
 11
0.0
 21
2.5
 31
0.0
  0
LINE
  5
92
330
8E
100
AcDbEntity
  8
FORMAT
 62
     0
100
AcDbLine
 10
0.0
 20
0.0
 30
0.0
 11
-2.5
 21
0.0
 31
0.0
  0
LINE
  5
93
330
8E
100
AcDbEntity
  8
FORMAT
 62
     0
100
AcDbLine
 10
0.0
 20
0.0
 30
0.0
 11
0.0
 21
-2.5
 31
0.0
  0
LINE
  5
94
330
8E
100
AcDbEntity
  8
FORMAT
 62
     0
100
AcDbLine
 10
0.0
 20
0.0
 30
0.0
 11
2.5
 21
0.0
 31
0.0
  0
LINE
  5
95
330
8E
100
AcDbEntity
  8
FORMAT
 62
     0
100
AcDbLine
 10
0.0
 20
5.0
 30
0.0
 11
0.0
 21
25.0
 31
0.0
  0
LINE
  5
96
330
8E
100
AcDbEntity
  8
FORMAT
 62
     0
100
AcDbLine
 10
-5.0
 20
0.0
 30
0.0
 11
-25.0
 21
0.0
 31
0.0
  0
LINE
  5
97
330
8E
100
AcDbEntity
  8
FORMAT
 62
     0
100
AcDbLine
 10
0.0
 20
-5.0
 30
0.0
 11
0.0
 21
-25.0
 31
0.0
  0
LINE
  5
98
330
8E
100
AcDbEntity
  8
FORMAT
 62
     0
100
AcDbLine
 10
5.0
 20
0.0
 30
0.0
 11
25.0
 21
0.0
 31
0.0
  0
ENDBLK
  5
90
330
8E
100
AcDbEntity
  8
0
100
AcDbBlockEnd
  0
BLOCK
  5
C9
330
C8
100
AcDbEntity
  8
0
100
AcDbBlockBegin
  2
SW_CENTERMARKSYMBOL_1
 70
     0
 10
0.0
 20
0.0
 30
0.0
  3
SW_CENTERMARKSYMBOL_1
  1

  0
LINE
  5
CB
330
C8
100
AcDbEntity
  8
FORMAT
 62
     0
100
AcDbLine
 10
0.0
 20
0.0
 30
0.0
 11
0.0
 21
2.5
 31
0.0
  0
LINE
  5
CC
330
C8
100
AcDbEntity
  8
FORMAT
 62
     0
100
AcDbLine
 10
0.0
 20
0.0
 30
0.0
 11
-2.5
 21
0.0
 31
0.0
  0
LINE
  5
CD
330
C8
100
AcDbEntity
  8
FORMAT
 62
     0
100
AcDbLine
 10
0.0
 20
0.0
 30
0.0
 11
0.0
 21
-2.5
 31
0.0
  0
LINE
  5
CE
330
C8
100
AcDbEntity
  8
FORMAT
 62
     0
100
AcDbLine
 10
0.0
 20
0.0
 30
0.0
 11
2.5
 21
0.0
 31
0.0
  0
LINE
  5
CF
330
C8
100
AcDbEntity
  8
FORMAT
 62
     0
100
AcDbLine
 10
0.0
 20
5.0
 30
0.0
 11
0.0
 21
9.5
 31
0.0
  0
LINE
  5
D0
330
C8
100
AcDbEntity
  8
FORMAT
 62
     0
100
AcDbLine
 10
-5.0
 20
0.0
 30
0.0
 11
-9.5
 21
0.0
 31
0.0
  0
LINE
  5
D1
330
C8
100
AcDbEntity
  8
FORMAT
 62
     0
100
AcDbLine
 10
0.0
 20
-5.0
 30
0.0
 11
0.0
 21
-9.5
 31
0.0
  0
LINE
  5
D2
330
C8
100
AcDbEntity
  8
FORMAT
 62
     0
100
AcDbLine
 10
5.0
 20
0.0
 30
0.0
 11
9.5
 21
0.0
 31
0.0
  0
ENDBLK
  5
CA
330
C8
100
AcDbEntity
  8
0
100
AcDbBlockEnd
  0
BLOCK
  5
D5
330
D4
100
AcDbEntity
  8
0
100
AcDbBlockBegin
  2
SW_CENTERMARKSYMBOL_2
 70
     0
 10
0.0
 20
0.0
 30
0.0
  3
SW_CENTERMARKSYMBOL_2
  1

  0
LINE
  5
D7
330
D4
100
AcDbEntity
  8
FORMAT
 62
     0
100
AcDbLine
 10
0.0
 20
0.0
 30
0.0
 11
0.0
 21
2.5
 31
0.0
  0
LINE
  5
D8
330
D4
100
AcDbEntity
  8
FORMAT
 62
     0
100
AcDbLine
 10
0.0
 20
0.0
 30
0.0
 11
-2.5
 21
0.0
 31
0.0
  0
LINE
  5
D9
330
D4
100
AcDbEntity
  8
FORMAT
 62
     0
100
AcDbLine
 10
0.0
 20
0.0
 30
0.0
 11
0.0
 21
-2.5
 31
0.0
  0
LINE
  5
DA
330
D4
100
AcDbEntity
  8
FORMAT
 62
     0
100
AcDbLine
 10
0.0
 20
0.0
 30
0.0
 11
2.5
 21
0.0
 31
0.0
  0
LINE
  5
DB
330
D4
100
AcDbEntity
  8
FORMAT
 62
     0
100
AcDbLine
 10
0.0
 20
5.0
 30
0.0
 11
0.0
 21
9.5
 31
0.0
  0
LINE
  5
DC
330
D4
100
AcDbEntity
  8
FORMAT
 62
     0
100
AcDbLine
 10
-5.0
 20
0.0
 30
0.0
 11
-9.5
 21
0.0
 31
0.0
  0
LINE
  5
DD
330
D4
100
AcDbEntity
  8
FORMAT
 62
     0
100
AcDbLine
 10
0.0
 20
-5.0
 30
0.0
 11
0.0
 21
-9.5
 31
0.0
  0
LINE
  5
DE
330
D4
100
AcDbEntity
  8
FORMAT
 62
     0
100
AcDbLine
 10
5.0
 20
0.0
 30
0.0
 11
9.5
 21
0.0
 31
0.0
  0
ENDBLK
  5
D6
330
D4
100
AcDbEntity
  8
0
100
AcDbBlockEnd
  0
ENDSEC
  0
SECTION
  2
ENTITIES
  0
LINE
  5
83
330
1F
100
AcDbEntity
  8
0
  6
Continuous
 62
     7
370
    25
100
AcDbLine
 10
129.1701403815
 20
96.2838301351
 30
0.0
 11
129.1701403815
 21
68.6754170122
 31
0.0
  0
LINE
  5
84
330
1F
100
AcDbEntity
  8
0
  6
Continuous
 62
     7
370
    25
100
AcDbLine
 10
143.1701403815
 20
68.6754170122
 30
0.0
 11
143.1701403815
 21
96.2846027538
 31
0.0
  0
LINE
  5
85
330
1F
100
AcDbEntity
  8
0
  6
Continuous
 62
     7
370
    25
100
AcDbLine
 10
129.1701403815
 20
96.2920122319
 30
0.0
 11
129.1701403815
 21
96.2838301351
 31
0.0
  0
LINE
  5
86
330
1F
100
AcDbEntity
  8
0
  6
Continuous
 62
     7
370
    25
100
AcDbLine
 10
143.1701403815
 20
96.2846027538
 30
0.0
 11
143.1701403815
 21
96.2920122319
 31
0.0
  0
CIRCLE
  5
87
330
1F
100
AcDbEntity
  8
0
  6
Continuous
 62
     7
370
    25
100
AcDbCircle
 10
136.1701403815
 20
117.6754170122
 30
0.0
 40
16.0
  0
CIRCLE
  5
88
330
1F
100
AcDbEntity
  8
0
  6
Continuous
 62
     7
370
    25
100
AcDbCircle
 10
136.1701403815
 20
117.6754170122
 30
0.0
 40
22.5
  0
LINE
  5
89
330
1F
100
AcDbEntity
  8
0
  6
Continuous
 62
     7
370
    25
100
AcDbLine
 10
136.1701403815
 20
68.6754170122
 30
0.0
 11
143.1701403815
 21
68.6754170122
 31
0.0
  0
LINE
  5
8A
330
1F
100
AcDbEntity
  8
0
  6
Continuous
 62
     7
370
    25
100
AcDbLine
 10
129.1701403815
 20
68.6754170122
 30
0.0
 11
136.1701403815
 21
68.6754170122
 31
0.0
  0
CIRCLE
  5
8B
330
1F
100
AcDbEntity
  8
0
  6
Continuous
 62
     7
370
    25
100
AcDbCircle
 10
136.1701403815
 20
117.6754170122
 30
0.0
 40
15.41421356237309
  0
CIRCLE
  5
8C
330
1F
100
AcDbEntity
  8
0
  6
Continuous
 62
     7
370
    25
100
AcDbCircle
 10
136.1701403815
 20
117.6754170122
 30
0.0
 40
13.08578643762691
  0
CIRCLE
  5
8D
330
1F
100
AcDbEntity
  8
0
  6
Continuous
 62
     7
370
    25
100
AcDbCircle
 10
136.1701403815
 20
117.6754170122
 30
0.0
 40
12.5
  0
INSERT
  5
99
330
1F
100
AcDbEntity
  8
FORMAT
 62
     7
100
AcDbBlockReference
  2
SW_CENTERMARKSYMBOL_0
 10
136.1701403815
 20
117.6754170122
 30
0.0
  0
ARC
  5
9A
330
1F
100
AcDbEntity
  8
0
  6
Continuous
 62
     7
370
    25
100
AcDbCircle
 10
52.0998144618
 20
138.1754170122
 30
0.0
 40
2.0
100
AcDbArc
 50
45.0
 51
90.0
  0
ARC
  5
9B
330
1F
100
AcDbEntity
  8
0
  6
Continuous
 62
     7
370
    25
100
AcDbCircle
 10
52.0998144618
 20
97.1754170122
 30
0.0
 40
2.0
100
AcDbArc
 50
270.0
 51
315.0
  0
LINE
  5
9C
330
1F
100
AcDbEntity
  8
0
  6
Continuous
 62
     7
370
    25
100
AcDbLine
 10
52.0998144618
 20
140.1754170122
 30
0.0
 11
4.9282415865
 21
140.1754170122
 31
0.0
  0
LINE
  5
9D
330
1F
100
AcDbEntity
  8
0
  6
Continuous
 62
     7
370
    25
100
AcDbLine
 10
19.9226275232
 20
95.1754170122
 30
0.0
 11
52.0998144618
 21
95.1754170122
 31
0.0
  0
LINE
  5
9E
330
1F
100
AcDbEntity
  8
0
  6
Continuous
 62
     7
370
    25
100
AcDbLine
 10
4.9282415865
 20
95.1754170122
 30
0.0
 11
5.9282415865
 21
95.1754170122
 31
0.0
  0
LINE
  5
9F
330
1F
100
AcDbEntity
  8
0
  6
Continuous
 62
     7
370
    25
100
AcDbLine
 10
53.5140280242
 20
95.7612034499
 30
0.0
 11
56.3424551489
 21
98.5896305746
 31
0.0
  0
LINE
  5
A0
330
1F
100
AcDbEntity
  8
0
  6
Continuous
 62
     7
370
    25
100
AcDbLine
 10
56.3424551489
 20
136.7612034499
 30
0.0
 11
53.5140280242
 21
139.5896305746
 31
0.0
  0
ARC
  5
A1
330
1F
100
AcDbEntity
  8
0
  6
Continuous
 62
     7
370
    25
100
AcDbCircle
 10
57.7566687113
 20
138.1754170122
 30
0.0
 40
2.000000000000028
100
AcDbArc
 50
225.0
 51
270.0
  0
ARC
  5
A2
330
1F
100
AcDbEntity
  8
0
  6
Continuous
 62
     7
370
    25
100
AcDbCircle
 10
57.7566687113
 20
97.1754170122
 30
0.0
 40
2.0
100
AcDbArc
 50
90.0
 51
135.0
  0
LINE
  5
A3
330
1F
100
AcDbEntity
  8
0
  6
Continuous
 62
     7
370
    25
100
AcDbLine
 10
89.9282415865
 20
136.1754170122
 30
0.0
 11
57.7566687113
 21
136.1754170122
 31
0.0
  0
LINE
  5
A4
330
1F
100
AcDbEntity
  8
0
  6
Continuous
 62
     7
370
    25
100
AcDbLine
 10
88.9212101381
 20
99.1754170122
 30
0.0
 11
89.9282415865
 21
99.1754170122
 31
0.0
  0
LINE
  5
A5
330
1F
100
AcDbEntity
  8
0
  6
Continuous
 62
     7
370
    25
100
AcDbLine
 10
57.7566687113
 20
99.1754170122
 30
0.0
 11
74.9282415865
 21
99.1754170122
 31
0.0
  0
LINE
  5
A6
330
1F
100
AcDbEntity
  8
0
  6
Continuous
 62
     7
370
    25
100
AcDbLine
 10
74.9282415865
 20
99.1754170122
 30
0.0
 11
74.9282415865
 21
80.1754170122
 31
0.0
  0
LINE
  5
A7
330
1F
100
AcDbEntity
  8
0
  6
Continuous
 62
     7
370
    25
100
AcDbLine
 10
88.9282415865
 20
80.1754170122
 30
0.0
 11
88.9282415865
 21
99.1780537919
 31
0.0
  0
LINE
  5
A8
330
1F
100
AcDbEntity
  8
0
  6
Continuous
 62
     7
370
    25
100
AcDbLine
 10
5.9282415865
 20
95.1754170122
 30
0.0
 11
5.9282415865
 21
68.6754170122
 31
0.0
  0
LINE
  5
A9
330
1F
100
AcDbEntity
  8
0
  6
Continuous
 62
     7
370
    25
100
AcDbLine
 10
19.9282415865
 20
68.6754170122
 30
0.0
 11
19.9282415865
 21
95.1771471614
 31
0.0
  0
LINE
  5
AA
330
1F
100
AcDbEntity
  8
0
  6
Continuous
 62
     7
370
    25
100
AcDbLine
 10
4.9282415865
 20
140.1754170122
 30
0.0
 11
4.9282415865
 21
95.1754170122
 31
0.0
  0
SPLINE
  5
AB
330
1F
100
AcDbEntity
  8
0
  6
Continuous
 62
     7
370
    25
100
AcDbSpline
210
0.0
220
0.0
230
1.0
 70
     8
 71
     3
 72
    27
 73
    23
 74
     0
 42
0.00000001
 43
0.00000001
 40
0.0
 40
0.0
 40
0.0
 40
0.0
 40
0.0033378361936216
 40
0.0564442545328691
 40
0.1067788939559303
 40
0.1585093885303933
 40
0.2100962302960439
 40
0.2630695045693608
 40
0.3166281275167097
 40
0.3717471938415498
 40
0.4250125393914117
 40
0.4799667612705885
 40
0.5308784644456159
 40
0.5833139181775672
 40
0.6335710295955361
 40
0.6851830032710744
 40
0.7373971572398047
 40
0.791031550892382
 40
0.8448476177024109
 40
0.9002872215112303
 40
0.9494747320075198
 40
1.0
 40
1.0
 40
1.0
 40
1.0
 10
19.92262752315185
 20
95.17715504951445
 30
0.0
 10
19.92447829980143
 20
95.17658212157248
 30
0.0
 10
19.95577573389722
 20
95.16689366213058
 30
0.0
 10
19.83896287907824
 20
95.20329990825752
 30
0.0
 10
19.56269788294578
 20
95.28731225162888
 30
0.0
 10
19.09934690027674
 20
95.42140138469932
 30
0.0
 10
18.47298694854113
 20
95.58828723715293
 30
0.0
 10
17.69042381082678
 20
95.7734797087538
 30
0.0
 10
16.75752694701912
 20
95.95927214936583
 30
0.0
 10
15.70965178136657
 20
96.12107605521422
 30
0.0
 10
14.56761316070561
 20
96.23978257356877
 30
0.0
 10
13.40317293493627
 20
96.29750834029339
 30
0.0
 10
12.23148122054504
 20
96.2908395225599
 30
0.0
 10
11.11434977900522
 20
96.22451740261035
 30
0.0
 10
10.04457093632399
 20
96.10641983011314
 30
0.0
 10
9.054457982575876
 20
95.95068714293909
 30
0.0
 10
8.148285518930578
 20
95.76952666111296
 30
0.0
 10
7.360590861177157
 20
95.582720024573
 30
0.0
 10
6.712385203091712
 20
95.40905367194196
 30
0.0
 10
6.258855422691132
 20
95.27692552875652
 30
0.0
 10
5.97944765903094
 20
95.19144176407299
 30
0.0
 10
5.945462261301722
 20
95.1808061589949
 30
0.0
 10
5.928241586538416
 20
95.1754170122378
 30
0.0
  0
ARC
  5
AC
330
1F
100
AcDbEntity
  8
0
  6
Continuous
 62
     7
370
    25
100
AcDbCircle
 10
81.9280615348
 20
81.5502929586
 30
0.0
 40
18.96424206806268
100
AcDbArc
 50
68.3611786802
 51
111.6605069088
  0
LINE
  5
AD
330
1F
100
AcDbEntity
  8
0
  6
Continuous
 62
     7
370
    25
100
AcDbLine
 10
89.9282415865
 20
136.1754170122
 30
0.0
 11
89.9282415865
 21
99.1754170122
 31
0.0
  0
LINE
  5
AE
330
1F
100
AcDbEntity
  8
0
  6
Continuous
 62
     7
370
    25
100
AcDbLine
 10
74.9282415865
 20
80.1754170122
 30
0.0
 11
88.9282415865
 21
80.1754170122
 31
0.0
  0
LINE
  5
AF
330
1F
100
AcDbEntity
  8
0
  6
Continuous
 62
     7
370
    25
100
AcDbLine
 10
5.9282415865
 20
68.6754170122
 30
0.0
 11
19.9282415865
 21
68.6754170122
 31
0.0
  0
LINE
  5
B0
330
1F
100
AcDbEntity
  8
0
  6
Continuous
 62
     1
370
    25
100
AcDbLine
 10
53.5140280242
 20
139.5896305746
 30
0.0
 11
53.5140280242
 21
95.7612034499
 31
0.0
  0
LINE
  5
B1
330
1F
100
AcDbEntity
  8
0
  6
Continuous
 62
     1
370
    25
100
AcDbLine
 10
52.0998144618
 20
140.1754170122
 30
0.0
 11
52.0998144618
 21
95.1754170122
 31
0.0
  0
LINE
  5
B2
330
1F
100
AcDbEntity
  8
0
  6
Continuous
 62
     1
370
    25
100
AcDbLine
 10
56.3424551489
 20
136.7612034499
 30
0.0
 11
56.3424551489
 21
98.5896305746
 31
0.0
  0
LINE
  5
B3
330
1F
100
AcDbEntity
  8
0
  6
Continuous
 62
     1
370
    25
100
AcDbLine
 10
57.7566687113
 20
136.1754170122
 30
0.0
 11
57.7566687113
 21
99.1754170122
 31
0.0
  0
ARC
  5
B4
330
1F
100
AcDbEntity
  8
0
  6
Continuous
 62
     7
370
    25
100
AcDbCircle
 10
156.6701403815
 20
202.3940517708
 30
0.0
 40
2.0
100
AcDbArc
 50
315.0
 51
0.0
  0
ARC
  5
B5
330
1F
100
AcDbEntity
  8
0
  6
Continuous
 62
     7
370
    25
100
AcDbCircle
 10
115.6701403815
 20
202.3940517708
 30
0.0
 40
2.0
100
AcDbArc
 50
180.0
 51
225.0
  0
LINE
  5
B6
330
1F
100
AcDbEntity
  8
0
  6
Continuous
 62
     7
370
    25
100
AcDbLine
 10
158.6701403815
 20
202.3940517708
 30
0.0
 11
158.6701403815
 21
249.565624646
 31
0.0
  0
LINE
  5
B7
330
1F
100
AcDbEntity
  8
0
  6
Continuous
 62
     7
370
    25
100
AcDbLine
 10
113.6701403815
 20
249.565624646
 30
0.0
 11
113.6701403815
 21
202.3940517708
 31
0.0
  0
LINE
  5
B8
330
1F
100
AcDbEntity
  8
0
  6
Continuous
 62
     7
370
    25
100
AcDbLine
 10
114.2559268191
 20
200.9798382084
 30
0.0
 11
117.0843539439
 21
198.1514110836
 31
0.0
  0
LINE
  5
B9
330
1F
100
AcDbEntity
  8
0
  6
Continuous
 62
     7
370
    25
100
AcDbLine
 10
155.2559268191
 20
198.1514110836
 30
0.0
 11
158.0843539439
 21
200.9798382084
 31
0.0
  0
ARC
  5
BA
330
1F
100
AcDbEntity
  8
0
  6
Continuous
 62
     7
370
    25
100
AcDbCircle
 10
156.6701403815
 20
196.7371975213
 30
0.0
 40
2.0
100
AcDbArc
 50
135.0
 51
180.0
  0
ARC
  5
BB
330
1F
100
AcDbEntity
  8
0
  6
Continuous
 62
     7
370
    25
100
AcDbCircle
 10
115.6701403815
 20
196.7371975213
 30
0.0
 40
1.999999999999986
100
AcDbArc
 50
0.0
 51
45.0
  0
LINE
  5
BC
330
1F
100
AcDbEntity
  8
0
  6
Continuous
 62
     7
370
    25
100
AcDbLine
 10
154.6701403815
 20
164.565624646
 30
0.0
 11
154.6701403815
 21
196.7371975213
 31
0.0
  0
LINE
  5
BD
330
1F
100
AcDbEntity
  8
0
  6
Continuous
 62
     7
370
    25
100
AcDbLine
 10
117.6701403815
 20
196.7371975213
 30
0.0
 11
117.6701403815
 21
164.565624646
 31
0.0
  0
CIRCLE
  5
BE
330
1F
100
AcDbEntity
  8
0
  6
Continuous
 62
     7
370
    25
100
AcDbCircle
 10
136.1701403815
 20
241.565624646
 30
0.0
 40
7.0
  0
CIRCLE
  5
BF
330
1F
100
AcDbEntity
  8
0
  6
Continuous
 62
     7
370
    25
100
AcDbCircle
 10
136.1701403815
 20
241.565624646
 30
0.0
 40
5.000000000000028
  0
CIRCLE
  5
C0
330
1F
100
AcDbEntity
  8
0
  6
Continuous
 62
     7
370
    25
100
AcDbCircle
 10
136.1701403815
 20
172.565624646
 30
0.0
 40
7.0
  0
CIRCLE
  5
C1
330
1F
100
AcDbEntity
  8
0
  6
Continuous
 62
     7
370
    25
100
AcDbCircle
 10
136.1701403815
 20
172.565624646
 30
0.0
 40
5.0
  0
LINE
  5
C2
330
1F
100
AcDbEntity
  8
0
  6
Continuous
 62
     7
370
    25
100
AcDbLine
 10
158.6701403815
 20
249.565624646
 30
0.0
 11
113.6701403815
 21
249.565624646
 31
0.0
  0
LINE
  5
C3
330
1F
100
AcDbEntity
  8
0
  6
Continuous
 62
     7
370
    25
100
AcDbLine
 10
154.6701403815
 20
164.565624646
 30
0.0
 11
117.6701403815
 21
164.565624646
 31
0.0
  0
LINE
  5
C4
330
1F
100
AcDbEntity
  8
0
  6
Continuous
 62
     1
370
    25
100
AcDbLine
 10
158.0843539439
 20
200.9798382084
 30
0.0
 11
114.2559268191
 21
200.9798382084
 31
0.0
  0
LINE
  5
C5
330
1F
100
AcDbEntity
  8
0
  6
Continuous
 62
     1
370
    25
100
AcDbLine
 10
158.6701403815
 20
202.3940517708
 30
0.0
 11
113.6701403815
 21
202.3940517708
 31
0.0
  0
LINE
  5
C6
330
1F
100
AcDbEntity
  8
0
  6
Continuous
 62
     1
370
    25
100
AcDbLine
 10
155.2559268191
 20
198.1514110836
 30
0.0
 11
117.0843539439
 21
198.1514110836
 31
0.0
  0
LINE
  5
C7
330
1F
100
AcDbEntity
  8
0
  6
Continuous
 62
     1
370
    25
100
AcDbLine
 10
154.6701403815
 20
196.7371975213
 30
0.0
 11
117.6701403815
 21
196.7371975213
 31
0.0
  0
INSERT
  5
D3
330
1F
100
AcDbEntity
  8
FORMAT
 62
     7
100
AcDbBlockReference
  2
SW_CENTERMARKSYMBOL_1
 10
136.1701403815
 20
172.565624646
 30
0.0
  0
INSERT
  5
DF
330
1F
100
AcDbEntity
  8
FORMAT
 62
     7
100
AcDbBlockReference
  2
SW_CENTERMARKSYMBOL_2
 10
136.1701403815
 20
241.565624646
 30
0.0
  0
ARC
  5
E0
330
1F
100
AcDbEntity
  8
0
  6
Continuous
 62
     7
370
    25
100
AcDbCircle
 10
225.2504762702
 20
97.1754170122
 30
0.0
 40
2.0
100
AcDbArc
 50
225.0
 51
270.0
  0
ARC
  5
E1
330
1F
100
AcDbEntity
  8
0
  6
Continuous
 62
     7
370
    25
100
AcDbCircle
 10
225.2504762702
 20
138.1754170122
 30
0.0
 40
2.0
100
AcDbArc
 50
90.0
 51
135.0
  0
LINE
  5
E2
330
1F
100
AcDbEntity
  8
0
  6
Continuous
 62
     7
370
    25
100
AcDbLine
 10
271.4220491455
 20
95.1754170122
 30
0.0
 11
272.4220491455
 21
95.1754170122
 31
0.0
  0
LINE
  5
E3
330
1F
100
AcDbEntity
  8
0
  6
Continuous
 62
     7
370
    25
100
AcDbLine
 10
225.2504762702
 20
95.1754170122
 30
0.0
 11
257.4276632088
 21
95.1754170122
 31
0.0
  0
LINE
  5
E4
330
1F
100
AcDbEntity
  8
0
  6
Continuous
 62
     7
370
    25
100
AcDbLine
 10
272.4220491455
 20
140.1754170122
 30
0.0
 11
225.2504762702
 21
140.1754170122
 31
0.0
  0
LINE
  5
E5
330
1F
100
AcDbEntity
  8
0
  6
Continuous
 62
     7
370
    25
100
AcDbLine
 10
223.8362627078
 20
139.5896305746
 30
0.0
 11
221.0078355831
 21
136.7612034499
 31
0.0
  0
LINE
  5
E6
330
1F
100
AcDbEntity
  8
0
  6
Continuous
 62
     7
370
    25
100
AcDbLine
 10
221.0078355831
 20
98.5896305746
 30
0.0
 11
223.8362627078
 21
95.7612034499
 31
0.0
  0
ARC
  5
E7
330
1F
100
AcDbEntity
  8
0
  6
Continuous
 62
     7
370
    25
100
AcDbCircle
 10
219.5936220207
 20
97.1754170122
 30
0.0
 40
2.0
100
AcDbArc
 50
45.0
 51
90.0
  0
ARC
  5
E8
330
1F
100
AcDbEntity
  8
0
  6
Continuous
 62
     7
370
    25
100
AcDbCircle
 10
219.5936220207
 20
138.1754170122
 30
0.0
 40
2.000000000000028
100
AcDbArc
 50
270.0
 51
315.0
  0
LINE
  5
E9
330
1F
100
AcDbEntity
  8
0
  6
Continuous
 62
     7
370
    25
100
AcDbLine
 10
202.4220491455
 20
99.1754170122
 30
0.0
 11
219.5936220207
 21
99.1754170122
 31
0.0
  0
LINE
  5
EA
330
1F
100
AcDbEntity
  8
0
  6
Continuous
 62
     7
370
    25
100
AcDbLine
 10
187.4220491455
 20
99.1754170122
 30
0.0
 11
188.4290805939
 21
99.1754170122
 31
0.0
  0
LINE
  5
EB
330
1F
100
AcDbEntity
  8
0
  6
Continuous
 62
     7
370
    25
100
AcDbLine
 10
219.5936220207
 20
136.1754170122
 30
0.0
 11
187.4220491455
 21
136.1754170122
 31
0.0
  0
LINE
  5
EC
330
1F
100
AcDbEntity
  8
0
  6
Continuous
 62
     7
370
    25
100
AcDbLine
 10
188.4220491455
 20
99.1780537919
 30
0.0
 11
188.4220491455
 21
80.1754170122
 31
0.0
  0
LINE
  5
ED
330
1F
100
AcDbEntity
  8
0
  6
Continuous
 62
     7
370
    25
100
AcDbLine
 10
202.4220491455
 20
80.1754170122
 30
0.0
 11
202.4220491455
 21
99.1754170122
 31
0.0
  0
LINE
  5
EE
330
1F
100
AcDbEntity
  8
0
  6
Continuous
 62
     7
370
    25
100
AcDbLine
 10
257.4220491455
 20
95.1771471614
 30
0.0
 11
257.4220491455
 21
68.6754170122
 31
0.0
  0
LINE
  5
EF
330
1F
100
AcDbEntity
  8
0
  6
Continuous
 62
     7
370
    25
100
AcDbLine
 10
271.4220491455
 20
68.6754170122
 30
0.0
 11
271.4220491455
 21
95.1754170122
 31
0.0
  0
LINE
  5
F0
330
1F
100
AcDbEntity
  8
0
  6
Continuous
 62
     7
370
    25
100
AcDbLine
 10
272.4220491455
 20
117.6754170122
 30
0.0
 11
272.4220491455
 21
140.1754170122
 31
0.0
  0
LINE
  5
F1
330
1F
100
AcDbEntity
  8
0
  6
Continuous
 62
     7
370
    25
100
AcDbLine
 10
272.4220491455
 20
95.1754170122
 30
0.0
 11
272.4220491455
 21
117.6754170122
 31
0.0
  0
SPLINE
  5
F2
330
1F
100
AcDbEntity
  8
0
  6
Continuous
 62
     7
370
    25
100
AcDbSpline
210
0.0
220
0.0
230
1.0
 70
     8
 71
     3
 72
    26
 73
    22
 74
     0
 42
0.00000001
 43
0.00000001
 40
0.0
 40
0.0
 40
0.0
 40
0.0
 40
0.0512101165004864
 40
0.1039476652871191
 40
0.1551465063566326
 40
0.2077559126601827
 40
0.2603759890400033
 40
0.3144482543807218
 40
0.3682712025197161
 40
0.4237460256398493
 40
0.4759286360254729
 40
0.5297504535878507
 40
0.5799643409954122
 40
0.6315982167818649
 40
0.6825921691121325
 40
0.7349423201959415
 40
0.7881950124741446
 40
0.8429644711594644
 40
0.8965456794694812
 40
0.9518022711901456
 40
1.0
 40
1.0
 40
1.0
 40
1.0
 10
271.4220491454531
 20
95.1754170122378
 30
0.0
 10
271.4043085997633
 20
95.18096848268053
 30
0.0
 10
271.3682983652355
 20
95.1922370059893
 30
0.0
 10
271.0793853163682
 20
95.2805908818269
 30
0.0
 10
270.6246957370153
 20
95.41251847158499
 30
0.0
 10
270.004167131964
 20
95.57888092758161
 30
0.0
 10
269.2231018058856
 20
95.76491043278965
 30
0.0
 10
268.3020755521425
 20
95.95009532399851
 30
0.0
 10
267.2507007292159
 20
96.11497227811968
 30
0.0
 10
266.1240824286548
 20
96.23477513511898
 30
0.0
 10
264.9451155238125
 20
96.29638061034173
 30
0.0
 10
263.7878415748568
 20
96.29293345526696
 30
0.0
 10
262.6548145605514
 20
96.22832277766723
 30
0.0
 10
261.591451072691
 20
96.11361937184252
 30
0.0
 10
260.5917293609524
 20
95.95841229946892
 30
0.0
 10
259.684847266599
 20
95.77886857685026
 30
0.0
 10
258.8867004929799
 20
95.59097291829876
 30
0.0
 10
258.2360475998952
 20
95.41737004035356
 30
0.0
 10
257.7587491108931
 20
95.27889705799025
 30
0.0
 10
257.4701320761672
 20
95.190453583754
 30
0.0
 10
257.441160573097
 20
95.181381561122
 30
0.0
 10
257.4276632088397
 20
95.17715504951445
 30
0.0
  0
SPLINE
  5
F3
330
1F
100
AcDbEntity
  8
0
  6
Continuous
 62
     7
370
    25
100
AcDbSpline
210
0.0
220
0.0
230
1.0
 70
     8
 71
     3
 72
    27
 73
    23
 74
     0
 42
0.00000001
 43
0.00000001
 40
0.0
 40
0.0
 40
0.0
 40
0.0
 40
0.0504160899113152
 40
0.1023548722635731
 40
0.1527553450971021
 40
0.2045163867436517
 40
0.256895527684973
 40
0.3106801814819531
 40
0.3649738337528304
 40
0.4209711027956543
 40
0.4729450274470249
 40
0.5266287050975321
 40
0.5755362261605547
 40
0.6258167474745929
 40
0.6757365770759718
 40
0.7269278593302495
 40
0.7802155295890796
 40
0.8349947055436049
 40
0.8890129809900249
 40
0.944774128020024
 40
0.995879648502191
 40
1.0
 40
1.0
 40
1.0
 40
1.0
 10
202.4220491454531
 20
99.17541701223782
 30
0.0
 10
202.4047355987778
 20
99.18200341817544
 30
0.0
 10
202.3695855928669
 20
99.19537515603946
 30
0.0
 10
202.0879276838145
 20
99.30026791620809
 30
0.0
 10
201.6457326586585
 20
99.45711714731338
 30
0.0
 10
201.0413976674472
 20
99.65634414792201
 30
0.0
 10
200.278122879082
 20
99.88169897169921
 30
0.0
 10
199.3689810907931
 20
100.110520713304
 30
0.0
 10
198.3221399444143
 20
100.3184541130342
 30
0.0
 10
197.1937874302979
 20
100.4724204914343
 30
0.0
 10
196.0125302327716
 20
100.5541099417355
 30
0.0
 10
194.8633393184726
 20
100.5544061289989
 30
0.0
 10
193.7455777722767
 20
100.4799870669426
 30
0.0
 10
192.7018883009565
 20
100.345903077375
 30
0.0
 10
191.7165535468952
 20
100.1626165223494
 30
0.0
 10
190.8096952742992
 20
99.94712949974237
 30
0.0
 10
189.9981354842464
 20
99.7171822423228
 30
0.0
 10
189.3244285608819
 20
99.50053387620939
 30
0.0
 10
188.808587165464
 20
99.31946289254445
 30
0.0
 10
188.5160767893321
 20
99.21109408372422
 30
0.0
 10
188.3957442397918
 20
99.16551205355844
 30
0.0
 10
188.4267660827229
 20
99.17719353177586
 30
0.0
 10
188.4290805938823
 20
99.17806507611809
 30
0.0
  0
LINE
  5
F4
330
1F
100
AcDbEntity
  8
0
  6
Continuous
 62
     7
370
    25
100
AcDbLine
 10
187.4220491455
 20
117.6754170122
 30
0.0
 11
187.4220491455
 21
136.1754170122
 31
0.0
  0
LINE
  5
F5
330
1F
100
AcDbEntity
  8
0
  6
Continuous
 62
     7
370
    25
100
AcDbLine
 10
187.4220491455
 20
99.1754170122
 30
0.0
 11
187.4220491455
 21
117.6754170122
 31
0.0
  0
LINE
  5
F6
330
1F
100
AcDbEntity
  8
0
  6
Continuous
 62
     7
370
    25
100
AcDbLine
 10
188.4220491455
 20
80.1754170122
 30
0.0
 11
202.4220491455
 21
80.1754170122
 31
0.0
  0
LINE
  5
F7
330
1F
100
AcDbEntity
  8
0
  6
Continuous
 62
     7
370
    25
100
AcDbLine
 10
257.4220491455
 20
68.6754170122
 30
0.0
 11
271.4220491455
 21
68.6754170122
 31
0.0
  0
LINE
  5
F8
330
1F
100
AcDbEntity
  8
0
  6
Continuous
 62
     1
370
    25
100
AcDbLine
 10
223.8362627078
 20
117.6754170122
 30
0.0
 11
223.8362627078
 21
139.5896305746
 31
0.0
  0
LINE
  5
F9
330
1F
100
AcDbEntity
  8
0
  6
Continuous
 62
     1
370
    25
100
AcDbLine
 10
223.8362627078
 20
95.7612034499
 30
0.0
 11
223.8362627078
 21
117.6754170122
 31
0.0
  0
LINE
  5
FA
330
1F
100
AcDbEntity
  8
0
  6
Continuous
 62
     1
370
    25
100
AcDbLine
 10
225.2504762702
 20
117.6754170122
 30
0.0
 11
225.2504762702
 21
140.1754170122
 31
0.0
  0
LINE
  5
FB
330
1F
100
AcDbEntity
  8
0
  6
Continuous
 62
     1
370
    25
100
AcDbLine
 10
225.2504762702
 20
95.1754170122
 30
0.0
 11
225.2504762702
 21
117.6754170122
 31
0.0
  0
LINE
  5
FC
330
1F
100
AcDbEntity
  8
0
  6
Continuous
 62
     1
370
    25
100
AcDbLine
 10
221.0078355831
 20
117.6754170122
 30
0.0
 11
221.0078355831
 21
136.7612034499
 31
0.0
  0
LINE
  5
FD
330
1F
100
AcDbEntity
  8
0
  6
Continuous
 62
     1
370
    25
100
AcDbLine
 10
221.0078355831
 20
98.5896305746
 30
0.0
 11
221.0078355831
 21
117.6754170122
 31
0.0
  0
LINE
  5
FE
330
1F
100
AcDbEntity
  8
0
  6
Continuous
 62
     1
370
    25
100
AcDbLine
 10
219.5936220207
 20
117.6754170122
 30
0.0
 11
219.5936220207
 21
136.1754170122
 31
0.0
  0
LINE
  5
FF
330
1F
100
AcDbEntity
  8
0
  6
Continuous
 62
     1
370
    25
100
AcDbLine
 10
219.5936220207
 20
99.1754170122
 30
0.0
 11
219.5936220207
 21
117.6754170122
 31
0.0
  0
ARC
  5
100
330
1F
100
AcDbEntity
  8
0
  6
Continuous
 62
     7
370
    25
100
AcDbCircle
 10
115.6701403815
 20
0.255570387
 30
0.0
 40
2.0
100
AcDbArc
 50
135.0
 51
180.0
  0
ARC
  5
101
330
1F
100
AcDbEntity
  8
0
  6
Continuous
 62
     7
370
    25
100
AcDbCircle
 10
156.6701403815
 20
0.255570387
 30
0.0
 40
2.000000000000008
100
AcDbArc
 50
0.0
 51
45.0
  0
LINE
  5
102
330
1F
100
AcDbEntity
  8
0
  6
Continuous
 62
     7
370
    25
100
AcDbLine
 10
113.6701403815
 20
0.255570387
 30
0.0
 11
113.6701403815
 21
-46.9160024882
 31
0.0
  0
LINE
  5
103
330
1F
100
AcDbEntity
  8
0
  6
Continuous
 62
     7
370
    25
100
AcDbLine
 10
158.6701403815
 20
-46.9160024882
 30
0.0
 11
158.6701403815
 21
0.255570387
 31
0.0
  0
LINE
  5
104
330
1F
100
AcDbEntity
  8
0
  6
Continuous
 62
     7
370
    25
100
AcDbLine
 10
158.0843539439
 20
1.6697839494
 30
0.0
 11
155.2559268191
 21
4.4982110741
 31
0.0
  0
LINE
  5
105
330
1F
100
AcDbEntity
  8
0
  6
Continuous
 62
     7
370
    25
100
AcDbLine
 10
117.0843539439
 20
4.4982110741
 30
0.0
 11
114.2559268191
 21
1.6697839494
 31
0.0
  0
ARC
  5
106
330
1F
100
AcDbEntity
  8
0
  6
Continuous
 62
     7
370
    25
100
AcDbCircle
 10
115.6701403815
 20
5.9124246365
 30
0.0
 40
1.999999999999996
100
AcDbArc
 50
315.0
 51
0.0
  0
ARC
  5
107
330
1F
100
AcDbEntity
  8
0
  6
Continuous
 62
     7
370
    25
100
AcDbCircle
 10
156.6701403815
 20
5.9124246365
 30
0.0
 40
2.000000000000006
100
AcDbArc
 50
180.0
 51
225.0
  0
LINE
  5
108
330
1F
100
AcDbEntity
  8
0
  6
Continuous
 62
     7
370
    25
100
AcDbLine
 10
117.6701403815
 20
38.0839975118
 30
0.0
 11
117.6701403815
 21
5.9124246365
 31
0.0
  0
LINE
  5
109
330
1F
100
AcDbEntity
  8
0
  6
Continuous
 62
     7
370
    25
100
AcDbLine
 10
154.6701403815
 20
5.9124246365
 30
0.0
 11
154.6701403815
 21
38.0839975118
 31
0.0
  0
LINE
  5
10A
330
1F
100
AcDbEntity
  8
0
  6
Continuous
 62
     7
370
    25
100
AcDbLine
 10
113.6701403815
 20
-46.9160024882
 30
0.0
 11
158.6701403815
 21
-46.9160024882
 31
0.0
  0
LINE
  5
10B
330
1F
100
AcDbEntity
  8
0
  6
Continuous
 62
     7
370
    25
100
AcDbLine
 10
117.6701403815
 20
38.0839975118
 30
0.0
 11
154.6701403815
 21
38.0839975118
 31
0.0
  0
LINE
  5
10C
330
1F
100
AcDbEntity
  8
0
  6
Continuous
 62
     1
370
    25
100
AcDbLine
 10
114.2559268191
 20
1.6697839494
 30
0.0
 11
158.0843539439
 21
1.6697839494
 31
0.0
  0
LINE
  5
10D
330
1F
100
AcDbEntity
  8
0
  6
Continuous
 62
     1
370
    25
100
AcDbLine
 10
113.6701403815
 20
0.255570387
 30
0.0
 11
158.6701403815
 21
0.255570387
 31
0.0
  0
LINE
  5
10E
330
1F
100
AcDbEntity
  8
0
  6
Continuous
 62
     1
370
    25
100
AcDbLine
 10
117.0843539439
 20
4.4982110741
 30
0.0
 11
155.2559268191
 21
4.4982110741
 31
0.0
  0
LINE
  5
10F
330
1F
100
AcDbEntity
  8
0
  6
Continuous
 62
     1
370
    25
100
AcDbLine
 10
117.6701403815
 20
5.9124246365
 30
0.0
 11
154.6701403815
 21
5.9124246365
 31
0.0
  0
LINE
  5
110
330
1F
100
AcDbEntity
  8
0
  6
Continuous
 62
     7
370
    25
100
AcDbLine
 10
194.2607779839
 20
12.3496710014
 30
0.0
 11
194.2607779839
 21
-9.7391208226
 31
0.0
  0
LINE
  5
111
330
1F
100
AcDbEntity
  8
0
  6
Continuous
 62
     7
370
    25
100
AcDbLine
 10
208.2607779839
 20
-9.7391208226
 30
0.0
 11
208.2607779839
 21
12.3496902473
 31
0.0
  0
LINE
  5
112
330
1F
100
AcDbEntity
  8
0
  6
Continuous
 62
     7
370
    25
100
AcDbLine
 10
240.2083485358
 20
33.7674834393
 30
0.0
 11
206.8530094765
 21
53.0231108106
 31
0.0
  0
LINE
  5
113
330
1F
100
AcDbEntity
  8
0
  6
Continuous
 62
     7
370
    25
100
AcDbLine
 10
184.3548379922
 20
14.0509120035
 30
0.0
 11
194.2607779839
 21
8.3323345697
 31
0.0
  0
LINE
  5
114
330
1F
100
AcDbEntity
  8
0
  6
Continuous
 62
     7
370
    25
100
AcDbLine
 10
208.2607779839
 20
0.2503066005
 30
0.0
 11
217.7101770515
 21
-5.2047153679
 31
0.0
  0
SPLINE
  5
115
330
1F
100
AcDbEntity
  8
0
  6
Continuous
 62
     7
370
    25
100
AcDbSpline
210
0.0
220
0.0
230
1.0
 70
     8
 71
     3
 72
    21
 73
    17
 74
     0
 42
0.00000001
 43
0.00000001
 40
0.0
 40
0.0
 40
0.0
 40
0.0
 40
0.0127113929854433
 40
0.0933484548797999
 40
0.1739342127353493
 40
0.2543705457791465
 40
0.3345332650997683
 40
0.414277504332729
 40
0.4934502240271649
 40
0.571909618949031
 40
0.6495482806603635
 40
0.7263144875051654
 40
0.802225820945785
 40
0.8773718692091622
 40
0.951906473807588
 40
1.0
 40
1.0
 40
1.0
 40
1.0
 10
245.4215700019241
 20
23.7553577319474
 30
0.0
 10
245.4197254949556
 20
23.8122258753843
 30
0.0
 10
245.4061800184117
 20
24.22984755758679
 30
0.0
 10
245.3259736200273
 20
24.98023869119605
 30
0.0
 10
245.1768366835788
 20
26.00029063755829
 30
0.0
 10
244.9645845713485
 20
26.98034042974028
 30
0.0
 10
244.6963056242156
 20
27.91956046787899
 30
0.0
 10
244.3709711934
 20
28.81280288971829
 30
0.0
 10
243.9904163368386
 20
29.6561680238248
 30
0.0
 10
243.5564295065273
 20
30.44571135728673
 30
0.0
 10
243.0715300073986
 20
31.17812261518012
 30
0.0
 10
242.5383933394623
 20
31.85035866547219
 30
0.0
 10
241.9605905349006
 20
32.46120272736115
 30
0.0
 10
241.3392091040471
 20
33.00577865197108
 30
0.0
 10
240.7605653863978
 20
33.43848243116908
 30
0.0
 10
240.3740642757614
 20
33.66191301102707
 30
0.0
 10
240.2224824065124
 20
33.74954024937188
 30
0.0
  0
SPLINE
  5
116
330
1F
100
AcDbEntity
  8
0
  6
Continuous
 62
     7
370
    25
100
AcDbSpline
210
0.0
220
0.0
230
1.0
 70
     8
 71
     3
 72
    21
 73
    17
 74
     0
 42
0.00000001
 43
0.00000001
 40
0.0
 40
0.0
 40
0.0
 40
0.0
 40
0.0504546876101741
 40
0.1250663404991585
 40
0.1997523924636131
 40
0.2747492373625864
 40
0.350263885454653
 40
0.4264576124755281
 40
0.5034333816723979
 40
0.5812291088132514
 40
0.6598187920732337
 40
0.7391221996758564
 40
0.8190214857339966
 40
0.8993809283271266
 40
0.9800652608420573
 40
1.0
 40
1.0
 40
1.0
 40
1.0
 10
217.7152628622289
 20
-5.198286747407622
 30
0.0
 10
217.8729301754715
 20
-5.289226600837423
 30
0.0
 10
218.2637536017493
 20
-5.514646977272427
 30
0.0
 10
218.9280849888948
 20
-5.80011623590939
 30
0.0
 10
219.6984714685858
 20
-6.062844388505264
 30
0.0
 10
220.4987945976649
 20
-6.256042611855164
 30
0.0
 10
221.3255163683879
 20
-6.382356688325017
 30
0.0
 10
222.1773342217645
 20
-6.440312499258541
 30
0.0
 10
223.0521218515003
 20
-6.429462839952337
 30
0.0
 10
223.9475662654479
 20
-6.349100537824035
 30
0.0
 10
224.8608878419898
 20
-6.198978846530219
 30
0.0
 10
225.788864774135
 20
-5.978640415406613
 30
0.0
 10
226.7280542156155
 20
-5.690267028267915
 30
0.0
 10
227.6743766479468
 20
-5.328447555233387
 30
0.0
 10
228.3857804742506
 20
-5.021961028457779
 30
0.0
 10
228.7796409742686
 20
-4.81663583309953
 30
0.0
 10
228.8576729636513
 20
-4.77595662443691
 30
0.0
  0
LINE
  5
117
330
1F
100
AcDbEntity
  8
0
  6
Continuous
 62
     7
370
    25
100
AcDbLine
 10
229.9617812789
 20
-4.1882992835
 30
0.0
 11
231.9614562227
 21
-3.0335362084
 31
0.0
  0
LINE
  5
118
330
1F
100
AcDbEntity
  8
0
  6
Continuous
 62
     7
370
    25
100
AcDbLine
 10
245.454951808
 20
20.3404163335
 30
0.0
 11
245.454951808
 21
22.6495671819
 31
0.0
  0
LINE
  5
119
330
1F
100
AcDbEntity
  8
0
  6
Continuous
 62
     7
370
    25
100
AcDbLine
 10
264.9572484121
 20
14.8615706087
 30
0.0
 11
245.09423761
 21
26.3282426697
 31
0.0
  0
LINE
  5
11A
330
1F
100
AcDbEntity
  8
0
  6
Continuous
 62
     7
370
    25
100
AcDbLine
 10
226.5998876631
 20
-5.7179590236
 30
0.0
 11
243.0511458857
 21
-15.2150682438
 31
0.0
  0
LINE
  5
11B
330
1F
100
AcDbEntity
  8
0
  6
Continuous
 62
     7
370
    25
100
AcDbLine
 10
243.0511458857
 20
-12.4495490029
 30
0.0
 11
243.0511458857
 21
-28.5149813438
 31
0.0
  0
LINE
  5
11C
330
1F
100
AcDbEntity
  8
0
  6
Continuous
 62
     7
370
    25
100
AcDbLine
 10
257.0511458857
 20
-28.5149813438
 30
0.0
 11
257.0511458857
 21
-12.4498900068
 31
0.0
  0
LWPOLYLINE
  5
11D
330
1F
100
AcDbEntity
  8
0
  6
Continuous
 62
     7
370
    25
100
AcDbPolyline
 90
       59
 70
   128
 43
0.0
 10
196.3110305155
 20
-6.8816924312
 10
196.875207985
 20
-6.589500446
 10
197.4908022529
 20
-6.33423488
 10
198.1505960394
 20
-6.1188884885
 10
198.8468538655
 20
-5.9459860111
 10
199.5714127448
 20
-5.8175545713
 10
200.3157778869
 20
-5.7350999103
 10
201.0712222911
 20
-5.6995887335
 10
201.8288890625
 20
-5.7114373771
 10
202.579895251
 20
-5.7705069266
 10
203.3154359956
 20
-5.8761048455
 10
204.0268877536
 20
-6.0269930947
 10
204.7059094036
 20
-6.2214026475
 10
205.3445400376
 20
-6.4570542296
 10
205.9352922954
 20
-6.7311850417
 10
206.4712401468
 20
-7.0405811506
 10
206.9461000933
 20
-7.3816151699
 10
207.3543048362
 20
-7.7502887875
 10
207.6910685482
 20
-8.1422796423
 10
207.9524429826
 20
-8.5529919999
 10
208.135363763
 20
-8.9776106335
 10
208.2376863108
 20
-9.4111572778
 10
208.2582109874
 20
-9.8485489948
 10
208.1966971599
 20
-10.2846577665
 10
208.0538660216
 20
-10.7143706164
 10
207.8313921371
 20
-11.1326495541
 10
207.5318838092
 20
-11.5345906415
 10
207.1588524992
 20
-11.9154814869
 10
206.7166716581
 20
-12.2708564934
 10
206.2105254522
 20
-12.596549214
 10
205.6463479827
 20
-12.8887411992
 10
205.0307537148
 20
-13.1440067653
 10
204.3709599283
 20
-13.3593531568
 10
203.6747021023
 20
-13.5322556341
 10
202.950143223
 20
-13.6606870739
 10
202.2057780808
 20
-13.743141735
 10
201.4503336766
 20
-13.7786529117
 10
200.6926669052
 20
-13.7668042681
 10
199.9416607167
 20
-13.7077347186
 10
199.2061199721
 20
-13.6021367998
 10
198.4946682141
 20
-13.4512485505
 10
197.8156465641
 20
-13.2568389978
 10
197.1770159301
 20
-13.0211874157
 10
196.5862636723
 20
-12.7470566036
 10
196.0503158209
 20
-12.4376604946
 10
195.5754558744
 20
-12.0966264753
 10
195.1672511315
 20
-11.7279528577
 10
194.8304874195
 20
-11.3359620029
 10
194.5691129852
 20
-10.9252496453
 10
194.3861922047
 20
-10.5006310117
 10
194.2838696569
 20
-10.0670843674
 10
194.2633449803
 20
-9.6296926504
 10
194.3248588078
 20
-9.1935838787
 10
194.4676899461
 20
-8.7638710289
 10
194.6901638306
 20
-8.3455920912
 10
194.9896721585
 20
-7.9436510037
 10
195.3627034685
 20
-7.5627601583
 10
195.8048843096
 20
-7.2073851518
 10
196.3110305155
 20
-6.8816924312
  0
LWPOLYLINE
  5
11E
330
1F
100
AcDbEntity
  8
0
  6
Continuous
 62
     7
370
    25
100
AcDbPolyline
 90
       50
 70
   128
 43
0.0
 10
197.7252440779
 20
-7.6981005431
 10
198.2063848033
 20
-7.453857411
 10
198.7376785804
 20
-7.2471382411
 10
199.3104015798
 20
-7.0813373562
 10
199.9151497059
 20
-6.9591772024
 10
200.5419930111
 20
-6.8826636459
 10
201.1806387457
 20
-6.8530530373
 10
201.8206003644
 20
-6.870831582
 10
202.451369715
 20
-6.9357073567
 10
203.0625895824
 20
-7.046615103
 10
203.6442237531
 20
-7.2017337188
 10
204.1867218102
 20
-7.3985161607
 10
204.6811759505
 20
-7.6337312664
 10
205.1194672508
 20
-7.9035168104
 10
205.49439898
 20
-8.2034429216
 10
205.7998147695
 20
-8.5285848214
 10
206.0306997005
 20
-8.8736036889
 10
206.1832626487
 20
-9.2328343238
 10
206.2549985348
 20
-9.6003781691
 10
206.2447294576
 20
-9.9702001648
 10
206.152624035
 20
-10.3362278442
 10
205.9801946354
 20
-10.6924510427
 10
205.7302725449
 20
-11.0330205854
 10
205.4069614773
 20
-11.3523443298
 10
205.0155701913
 20
-11.6451789888
 10
204.5625253211
 20
-11.9067162254
 10
204.0552658509
 20
-12.1326616054
 10
203.5021209672
 20
-12.3193051119
 10
202.9121732936
 20
-12.4635820638
 10
202.2951097548
 20
-12.5631234373
 10
201.6610625168
 20
-12.616294766
 10
201.0204426179
 20
-12.6222229781
 10
200.383769019
 20
-12.5808107326
 10
199.7614958831
 20
-12.4927380172
 10
199.1638409179
 20
-12.3594509837
 10
198.6006176013
 20
-12.1831382013
 10
198.0810740446
 20
-11.9666947212
 10
197.6137411387
 20
-11.7136745392
 10
197.206292477
 20
-11.4282322398
 10
196.8654183552
 20
-11.1150547776
 10
196.596715917
 20
-10.7792845179
 10
196.404597249
 20
-10.4264347991
 10
196.2922169344
 20
-10.0622994038
 10
196.2614202549
 20
-9.6928574252
 10
196.312712891
 20
-9.3241750902
 10
196.4452526192
 20
-8.9623061527
 10
196.6568631408
 20
-8.6131924906
 10
196.9440698167
 20
-8.2825665406
 10
197.3021567215
 20
-7.9758571716
 10
197.7252440779
 20
-7.6981005431
  0
SPLINE
  5
11F
330
1F
100
AcDbEntity
  8
0
  6
Continuous
 62
     7
370
    25
100
AcDbSpline
210
0.0
220
0.0
230
1.0
 70
     8
 71
     3
 72
    12
 73
     8
 74
     0
 42
0.00000001
 43
0.00000001
 40
0.0
 40
0.0
 40
0.0
 40
0.0
 40
0.204846492988695
 40
0.4158028948875137
 40
0.620604284825297
 40
0.8310481017105259
 40
1.0
 40
1.0
 40
1.0
 40
1.0
 10
196.3110305155486
 20
14.75663908374111
 30
0.0
 10
196.056540178553
 20
14.59973150803329
 30
0.0
 10
195.5399688802125
 20
14.28123631069206
 30
0.0
 10
194.9572245582044
 20
13.78176036821515
 30
0.0
 10
194.5363726394395
 20
13.27283895142787
 30
0.0
 10
194.2943250477468
 20
12.79578496100762
 30
0.0
 10
194.281457470176
 20
12.48682660202457
 30
0.0
 10
194.2757273009357
 20
12.34924175550474
 30
0.0
  0
SPLINE
  5
120
330
1F
100
AcDbEntity
  8
0
  6
Continuous
 62
     7
370
    25
100
AcDbSpline
210
0.0
220
0.0
230
1.0
 70
     8
 71
     3
 72
    22
 73
    18
 74
     0
 42
0.00000001
 43
0.00000001
 40
0.0
 40
0.0
 40
0.0
 40
0.0
 40
0.0174310292217444
 40
0.0888421614139666
 40
0.1623338741397483
 40
0.2333539718010507
 40
0.3066258930562415
 40
0.3745078169275316
 40
0.4444213978217333
 40
0.511430537145497
 40
0.580246150244224
 40
0.6498646662959072
 40
0.7213768255786259
 40
0.7931312144996105
 40
0.8670503083524893
 40
0.9326333204047198
 40
1.0
 40
1.0
 40
1.0
 40
1.0
 10
208.2429937174769
 20
12.35012015221949
 30
0.0
 10
208.2483442397518
 20
12.4172770643115
 30
0.0
 10
208.2756146870415
 20
12.75956122597762
 30
0.0
 10
208.1303782418521
 20
13.38488340789093
 30
0.0
 10
207.7984721508524
 20
14.17314122680832
 30
0.0
 10
207.2561387013677
 20
14.8913998656069
 30
0.0
 10
206.558366806808
 20
15.48582970751674
 30
0.0
 10
205.7153863787471
 20
15.95045956737641
 30
0.0
 10
204.7812718844775
 20
16.26905023885693
 30
0.0
 10
203.7551146315805
 20
16.45361655349493
 30
0.0
 10
202.6704431034751
 20
16.50862053962121
 30
0.0
 10
201.5277548649428
 20
16.44084300449453
 30
0.0
 10
200.3620693026127
 20
16.25845191976144
 30
0.0
 10
199.1949362079264
 20
15.97207507301491
 30
0.0
 10
198.1154430965254
 20
15.61127432025311
 30
0.0
 10
197.1309222380301
 20
15.20123231197117
 30
0.0
 10
196.586761264007
 20
14.90615641660106
 30
0.0
 10
196.3110305155486
 20
14.75663908374111
 30
0.0
  0
LWPOLYLINE
  5
121
330
1F
100
AcDbEntity
  8
0
  6
Continuous
 62
     7
370
    25
100
AcDbPolyline
 90
      105
 70
   128
 43
0.0
 10
179.6940211577
 20
24.3524201491
 10
179.7230479122
 20
25.4784608522
 10
179.8100222604
 20
26.6339063323
 10
179.9546268423
 20
27.8145404943
 10
180.1563340115
 20
29.016055332
 10
180.4144077603
 20
30.2340666482
 10
180.7279064056
 20
31.4641300516
 10
181.0956860249
 20
32.7017571743
 10
181.5164046303
 20
33.9424320491
 10
181.9885270651
 20
35.1816275879
 10
182.5103306058
 20
36.4148221007
 10
183.0799112479
 20
37.6375157943
 10
183.6951906533
 20
38.8452471921
 10
184.3539237344
 20
40.0336094131
 10
185.0537068454
 20
41.1982662526
 10
185.7919865536
 20
42.334968004
 10
186.5660689566
 20
43.4395669659
 10
187.3731295116
 20
44.5080325764
 10
188.210223342
 20
45.5364661204
 10
189.0742959834
 20
46.5211149556
 10
189.9621945283
 20
47.4583862049
 10
190.8706791313
 20
48.3448598673
 10
191.7964348305
 20
49.1773012966
 10
192.7360836438
 20
49.9526730042
 10
193.6861968946
 20
50.6681457428
 10
194.6433077226
 20
51.3211088301
 10
195.6039237344
 20
51.9091796745
 10
196.5645397461
 20
52.4302124693
 10
197.5216505741
 20
52.8823060223
 10
198.4717638249
 20
53.2638106932
 10
199.4114126383
 20
53.5733344128
 10
200.3371683375
 20
53.8097477627
 10
201.2456529404
 20
53.9721880961
 10
202.1335514853
 20
54.0600626858
 10
202.9976241267
 20
54.0730508871
 10
203.8347179572
 20
54.0111053075
 10
204.6417785121
 20
53.8744519795
 10
205.4158609151
 20
53.6635895364
 10
206.1541406234
 20
53.3792873923
 10
206.8539237344
 20
53.022582935
 10
207.5126568154
 20
52.5947777404
 10
208.1279362208
 20
52.0974328232
 10
208.6975168629
 20
51.532362941
 10
209.2193204036
 20
50.9016299726
 10
209.6914428385
 20
50.2075353942
 10
210.1121614438
 20
49.4526118816
 10
210.4799410631
 20
48.6396140689
 10
210.7934397085
 20
47.771508497
 10
211.0515134573
 20
46.8514627888
 10
211.2532206264
 20
45.8828340914
 10
211.3978252083
 20
44.8691568259
 10
211.4847995565
 20
43.8141297907
 10
211.5138263111
 20
42.7216026651
 10
211.4847995565
 20
41.595561962
 10
211.3978252083
 20
40.4401164818
 10
211.2532206264
 20
39.2594823199
 10
211.0515134573
 20
38.0579674821
 10
210.7934397085
 20
36.8399561659
 10
210.4799410631
 20
35.6098927625
 10
210.1121614438
 20
34.3722656399
 10
209.6914428385
 20
33.1315907651
 10
209.2193204036
 20
31.8923952263
 10
208.6975168629
 20
30.6592007135
 10
208.1279362208
 20
29.4365070199
 10
207.5126568154
 20
28.2287756221
 10
206.8539237344
 20
27.040413401
 10
206.1541406234
 20
25.8757565616
 10
205.4158609151
 20
24.7390548102
 10
204.6417785121
 20
23.6344558483
 10
203.8347179572
 20
22.5659902378
 10
202.9976241267
 20
21.5375566937
 10
202.1335514853
 20
20.5529078586
 10
201.2456529404
 20
19.6156366093
 10
200.3371683375
 20
18.7291629468
 10
199.4114126383
 20
17.8967215176
 10
198.4717638249
 20
17.12134981
 10
197.5216505741
 20
16.4058770713
 10
196.5645397461
 20
15.7529139841
 10
195.6039237344
 20
15.1648431397
 10
194.6433077226
 20
14.6438103449
 10
193.6861968946
 20
14.1917167918
 10
192.7360836438
 20
13.8102121209
 10
191.7964348305
 20
13.5006884013
 10
190.8706791313
 20
13.2642750515
 10
189.9621945283
 20
13.1018347181
 10
189.0742959834
 20
13.0139601283
 10
188.210223342
 20
13.000971927
 10
187.3731295116
 20
13.0629175067
 10
186.5660689566
 20
13.1995708347
 10
185.7919865536
 20
13.4104332778
 10
185.0537068454
 20
13.6947354218
 10
184.3539237344
 20
14.0514398791
 10
183.6951906533
 20
14.4792450738
 10
183.0799112479
 20
14.976589991
 10
182.5103306058
 20
15.5416598732
 10
181.9885270651
 20
16.1723928416
 10
181.5164046303
 20
16.86648742
 10
181.0956860249
 20
17.6214109325
 10
180.7279064056
 20
18.4344087452
 10
180.4144077603
 20
19.3025143172
 10
180.1563340115
 20
20.2225600254
 10
179.9546268423
 20
21.1911887228
 10
179.8100222604
 20
22.2048659882
 10
179.7230479122
 20
23.2598930234
 10
179.6940211577
 20
24.3524201491
  0
LWPOLYLINE
  5
122
330
1F
100
AcDbEntity
  8
0
  6
Continuous
 62
     7
370
    25
100
AcDbPolyline
 90
       88
 70
   128
 43
0.0
 10
184.2902152354
 20
27.0057465125
 10
184.3197074541
 20
27.9654880481
 10
184.4080303515
 20
28.9542769266
 10
184.5547234529
 20
29.9669580607
 10
184.7590219684
 20
30.9982518
 10
185.0198607802
 20
32.0427814563
 10
185.3358799954
 20
33.0951013356
 10
185.7054320361
 20
34.1497251295
 10
186.1265902292
 20
35.2011545177
 10
186.5971588509
 20
36.2439078343
 10
187.1146845742
 20
37.2725486463
 10
187.6764692597
 20
38.2817140969
 10
188.2795840221
 20
39.2661428646
 10
188.9208845003
 20
40.2207025936
 10
189.5970272506
 20
41.1404166516
 10
190.3044871778
 20
42.0204900753
 10
191.0395759134
 20
42.8563345694
 10
191.798461045
 20
43.6435924277
 10
192.577186097
 20
44.3781592523
 10
193.3716911576
 20
45.0562053518
 10
194.1778340452
 20
45.6741957079
 10
194.9914119042
 20
46.2289084051
 10
195.8081831162
 20
46.717451428
 10
196.6238894143
 20
47.1372777398
 10
197.4342780837
 20
47.4861985602
 10
198.2351241331
 20
47.7623947779
 10
199.0222523219
 20
47.9644264335
 10
199.7915589282
 20
48.0912402276
 10
200.5390331437
 20
48.1421750117
 10
201.2607779839
 20
48.1169652355
 10
201.9530306053
 20
48.0157423311
 10
202.6121819233
 20
47.8390340278
 10
203.2347954283
 20
47.5877616009
 10
203.8176251016
 20
47.2632350686
 10
204.3576323392
 20
46.8671463617
 10
204.8520017934
 20
46.4015605036
 10
205.2981560508
 20
45.8689048432
 10
205.6937690697
 20
45.2719564006
 10
206.0367783069
 20
44.6138273884
 10
206.3253954713
 20
43.8979489867
 10
206.5581158464
 20
43.128053454
 10
206.733726136
 20
42.308154669
 10
206.8513107894
 20
41.4425272044
 10
206.9102567746
 20
40.5356840409
 10
206.9102567746
 20
39.592353039
 10
206.8513107894
 20
38.6174522897
 10
206.733726136
 20
37.616064474
 10
206.5581158464
 20
36.5934103644
 10
206.3253954713
 20
35.5548216058
 10
206.0367783069
 20
34.5057129192
 10
205.6937690697
 20
33.4515538714
 10
205.2981560508
 20
32.3978403597
 10
204.8520017934
 20
31.3500659583
 10
204.3576323392
 20
30.3136932779
 10
203.8176251016
 20
29.2941254857
 10
203.2347954283
 20
28.296678136
 10
202.6121819233
 20
27.3265514576
 10
201.9530306053
 20
26.3888032417
 10
201.2607779839
 20
25.4883224733
 10
200.5390331437
 20
24.6298038421
 10
199.7915589282
 20
23.8177232668
 10
199.0222523219
 20
23.0563145596
 10
198.2351241331
 20
22.3495473527
 10
197.4342780837
 20
21.7011064032
 10
196.6238894143
 20
21.114372382
 10
195.8081831162
 20
20.5924042485
 10
194.9914119042
 20
20.137923303
 10
194.1778340452
 20
19.7532989985
 10
193.3716911576
 20
19.4405365882
 10
192.577186097
 20
19.2012666704
 10
191.798461045
 20
19.0367366877
 10
191.0395759134
 20
18.9478044233
 10
190.3044871778
 20
18.9349335287
 10
189.5970272506
 20
18.9981911069
 10
188.9208845003
 20
19.1372473622
 10
188.2795840221
 20
19.3513773195
 10
187.6764692597
 20
19.6394646046
 10
187.1146845742
 20
20.0000072636
 10
186.5971588509
 20
20.4311255941
 10
186.1265902292
 20
20.9305719448
 10
185.7054320361
 20
21.4957424335
 10
185.3358799954
 20
22.1236905232
 10
185.0198607802
 20
22.8111423831
 10
184.7590219684
 20
23.5545139577
 10
184.5547234529
 20
24.3499296517
 10
184.4080303515
 20
25.1932425361
 10
184.3197074541
 20
26.0800559679
 10
184.2902152354
 20
27.0057465125
  0
ARC
  5
123
330
1F
100
AcDbEntity
  8
0
  6
Continuous
 62
     7
370
    25
100
AcDbCircle
 10
223.9247874794
 20
22.6257601791
 30
0.0
 40
21.52937689887717
100
AcDbArc
 50
354.4128428991
 51
2.9117361242
  0
ARC
  5
124
330
1F
100
AcDbEntity
  8
0
  6
Continuous
 62
     7
370
    25
100
AcDbCircle
 10
219.2717443754
 20
14.3807538247
 30
0.0
 40
21.42541755754089
100
AcDbArc
 50
296.7023209391
 51
305.5186008427
  0
LWPOLYLINE
  5
125
330
1F
100
AcDbEntity
  8
0
  6
Continuous
 62
     7
370
    25
100
AcDbPolyline
 90
       35
 70
   128
 43
0.0
 10
264.9572484121
 20
14.8615706087
 10
265.4099039491
 20
14.573334011
 10
265.9743340284
 20
14.1282399931
 10
266.4929121684
 20
13.6148634952
 10
266.9633222731
 20
13.0354973816
 10
267.3834633769
 20
12.3927292419
 10
267.7514590276
 20
11.6894298345
 10
268.0656656673
 20
10.9287402655
 10
268.3246799729
 20
10.1140579591
 10
268.5273451235
 20
9.2490214842
 10
268.6727559675
 20
8.3374943037
 10
268.7602630647
 20
7.3835475194
 10
268.7894755872
 20
6.391441689
 10
268.7602630647
 20
5.3656077981
 10
268.6727559675
 20
4.3106274698
 10
268.5273451235
 20
3.2312125025
 10
268.3246799729
 20
2.1321838253
 10
268.0656656673
 20
1.0184499672
 10
267.7514590276
 20
-0.1050148661
 10
267.3834633769
 20
-1.2331930079
 10
266.9633222731
 20
-2.3610457408
 10
266.4929121684
 20
-3.4835358007
 10
265.9743340284
 20
-4.5956498744
 10
265.4099039491
 20
-5.6924209905
 10
264.8021428122
 20
-6.7689507031
 10
264.1537650265
 20
-7.820430969
 10
263.4676664045
 20
-8.8421656222
 10
262.7469112293
 20
-9.8295913476
 10
261.9947185683
 20
-10.7782980623
 10
261.2144478968
 20
-11.6840486117
 10
260.4095840928
 20
-12.5427976942
 10
259.5837218736
 20
-13.3507099277
 10
258.7405497402
 20
-14.1041769801
 10
257.8838335041
 20
-14.7998336847
 10
257.0511458857
 20
-15.4111203052
  0
SPLINE
  5
126
330
1F
100
AcDbEntity
  8
0
  6
Continuous
 62
     7
370
    25
100
AcDbSpline
210
0.0
220
0.0
230
1.0
 70
     8
 71
     3
 72
    12
 73
     8
 74
     0
 42
0.00000001
 43
0.00000001
 40
0.0
 40
0.0
 40
0.0
 40
0.0
 40
0.2017073664585779
 40
0.4095068015946197
 40
0.6111516864201002
 40
0.8182400071138288
 40
1.0
 40
1.0
 40
1.0
 40
1.0
 10
245.1013984174205
 20
-10.14327752659931
 30
0.0
 10
244.8498768556262
 20
-10.29727048911962
 30
0.0
 10
244.3392371496458
 20
-10.6099073880934
 30
0.0
 10
243.7614853032737
 20
-11.08718275761633
 30
0.0
 10
243.3409805668342
 20
-11.56494240814188
 30
0.0
 10
243.0905535793707
 20
-12.01778762020458
 30
0.0
 10
243.0709883260701
 20
-12.31226921553611
 30
0.0
 10
243.0618429082387
 20
-12.44991922147233
 30
0.0
  0
SPLINE
  5
127
330
1F
100
AcDbEntity
  8
0
  6
Continuous
 62
     7
370
    25
100
AcDbSpline
210
0.0
220
0.0
230
1.0
 70
     8
 71
     3
 72
    22
 73
    18
 74
     0
 42
0.00000001
 43
0.00000001
 40
0.0
 40
0.0
 40
0.0
 40
0.0
 40
0.0014920034170254
 40
0.0730059262089008
 40
0.1465650329663065
 40
0.218246711124358
 40
0.2922966573642096
 40
0.3593412332528132
 40
0.428466262211137
 40
0.4935467801252866
 40
0.5603379193562281
 40
0.6289027525788524
 40
0.6992516641590303
 40
0.7714905552980456
 40
0.8459056425177862
 40
0.9215176461214393
 40
1.0
 40
1.0
 40
1.0
 40
1.0
 10
257.0492164156843
 20
-12.44980350617997
 30
0.0
 10
257.0498576691321
 20
-12.44385375065411
 30
0.0
 10
257.0812351454559
 20
-12.15272344362862
 30
0.0
 10
256.9664955906638
 20
-11.56044383818477
 30
0.0
 10
256.683398522276
 20
-10.72604455529061
 30
0.0
 10
256.1772140119099
 20
-9.956297905147606
 30
0.0
 10
255.5109108041831
 20
-9.31974465688626
 30
0.0
 10
254.697560447144
 20
-8.82601050938216
 30
0.0
 10
253.8003796963909
 20
-8.492968300597244
 30
0.0
 10
252.8155656613971
 20
-8.301456705570143
 30
0.0
 10
251.7722059125131
 20
-8.242335247973651
 30
0.0
 10
250.6629301608281
 20
-8.307656018623987
 30
0.0
 10
249.5099025094177
 20
-8.490196815382967
 30
0.0
 10
248.3361195161238
 20
-8.779804685564544
 30
0.0
 10
247.1806784215907
 20
-9.16304958316317
 30
0.0
 10
246.0640105603734
 20
-9.622823076257527
 30
0.0
 10
245.4262291642696
 20
-9.967651643378206
 30
0.0
 10
245.1013984174205
 20
-10.14327752659931
 30
0.0
  0
LWPOLYLINE
  5
128
330
1F
100
AcDbEntity
  8
0
  6
Continuous
 62
     7
370
    25
100
AcDbPolyline
 90
       59
 70
   128
 43
0.0
 10
245.1013984174
 20
-25.6575529524
 10
245.6655758869
 20
-25.3653609672
 10
246.2811701548
 20
-25.1100954012
 10
246.9409639412
 20
-24.8947490097
 10
247.6372217673
 20
-24.7218465323
 10
248.3617806466
 20
-24.5934150925
 10
249.1061457888
 20
-24.5109604315
 10
249.861590193
 20
-24.4754492547
 10
250.6192569644
 20
-24.4872978983
 10
251.3702631529
 20
-24.5463674478
 10
252.1058038975
 20
-24.6519653667
 10
252.8172556554
 20
-24.8028536159
 10
253.4962773054
 20
-24.9972631687
 10
254.1349079395
 20
-25.2329147508
 10
254.7256601972
 20
-25.5070455629
 10
255.2616080487
 20
-25.8164416718
 10
255.7364679952
 20
-26.1574756911
 10
256.1446727381
 20
-26.5261493087
 10
256.4814364501
 20
-26.9181401635
 10
256.7428108844
 20
-27.3288525211
 10
256.9257316649
 20
-27.7534711547
 10
257.0280542126
 20
-28.187017799
 10
257.0485788893
 20
-28.624409516
 10
256.9870650618
 20
-29.0605182877
 10
256.8442339235
 20
-29.4902311376
 10
256.621760039
 20
-29.9085100753
 10
256.322251711
 20
-30.3104511627
 10
255.949220401
 20
-30.6913420081
 10
255.50703956
 20
-31.0467170146
 10
255.000893354
 20
-31.3724097352
 10
254.4367158846
 20
-31.6646017204
 10
253.8211216167
 20
-31.9198672865
 10
253.1613278302
 20
-32.1352136779
 10
252.4650700041
 20
-32.3081161553
 10
251.7405111248
 20
-32.4365475951
 10
250.9961459827
 20
-32.5190022562
 10
250.2407015785
 20
-32.5545134329
 10
249.483034807
 20
-32.5426647893
 10
248.7320286186
 20
-32.4835952398
 10
247.996487874
 20
-32.377997321
 10
247.285036116
 20
-32.2271090717
 10
246.606014466
 20
-32.032699519
 10
245.967383832
 20
-31.7970479368
 10
245.3766315742
 20
-31.5229171248
 10
244.8406837228
 20
-31.2135210158
 10
244.3658237763
 20
-30.8724869965
 10
243.9576190333
 20
-30.5038133789
 10
243.6208553214
 20
-30.1118225241
 10
243.359480887
 20
-29.7011101665
 10
243.1765601065
 20
-29.2764915329
 10
243.0742375588
 20
-28.8429448886
 10
243.0537128822
 20
-28.4055531716
 10
243.1152267097
 20
-27.9694443999
 10
243.258057848
 20
-27.5397315501
 10
243.4805317325
 20
-27.1214526124
 10
243.7800400604
 20
-26.7195115249
 10
244.1530713704
 20
-26.3386206795
 10
244.5952522114
 20
-25.983245673
 10
245.1013984174
 20
-25.6575529524
  0
LWPOLYLINE
  5
129
330
1F
100
AcDbEntity
  8
0
  6
Continuous
 62
     7
370
    25
100
AcDbPolyline
 90
       50
 70
   128
 43
0.0
 10
246.5156119798
 20
-26.4739610643
 10
246.9967527052
 20
-26.2297179322
 10
247.5280464822
 20
-26.0229987623
 10
248.1007694817
 20
-25.8571978774
 10
248.7055176078
 20
-25.7350377236
 10
249.332360913
 20
-25.6585241671
 10
249.9710066476
 20
-25.6289135585
 10
250.6109682662
 20
-25.6466921032
 10
251.2417376169
 20
-25.7115678779
 10
251.8529574842
 20
-25.8224756242
 10
252.434591655
 20
-25.97759424
 10
252.977089712
 20
-26.1743766819
 10
253.4715438524
 20
-26.4095917876
 10
253.9098351527
 20
-26.6793773316
 10
254.2847668819
 20
-26.9793034428
 10
254.5901826714
 20
-27.3044453426
 10
254.8210676023
 20
-27.6494642101
 10
254.9736305506
 20
-28.008694845
 10
255.0453664367
 20
-28.3762386903
 10
255.0350973595
 20
-28.746060686
 10
254.9429919368
 20
-29.1120883654
 10
254.7705625373
 20
-29.4683115639
 10
254.5206404468
 20
-29.8088811066
 10
254.1973293791
 20
-30.128204851
 10
253.8059380932
 20
-30.42103951
 10
253.352893223
 20
-30.6825767466
 10
252.8456337528
 20
-30.9085221266
 10
252.292488869
 20
-31.0951656331
 10
251.7025411955
 20
-31.239442585
 10
251.0854776566
 20
-31.3389839585
 10
250.4514304187
 20
-31.3921552872
 10
249.8108105198
 20
-31.3980834993
 10
249.1741369209
 20
-31.3566712538
 10
248.551863785
 20
-31.2685985384
 10
247.9542088198
 20
-31.1353115049
 10
247.3909855031
 20
-30.9589987225
 10
246.8714419465
 20
-30.7425552424
 10
246.4041090406
 20
-30.4895350604
 10
245.9966603789
 20
-30.204092761
 10
245.6557862571
 20
-29.8909152988
 10
245.3870838189
 20
-29.5551450391
 10
245.1949651509
 20
-29.2022953203
 10
245.0825848363
 20
-28.838159925
 10
245.0517881567
 20
-28.4687179464
 10
245.1030807929
 20
-28.1000356114
 10
245.2356205211
 20
-27.7381666739
 10
245.4472310426
 20
-27.3890530118
 10
245.7344377186
 20
-27.0584270618
 10
246.0925246234
 20
-26.7517176928
 10
246.5156119798
 20
-26.4739610643
  0
LWPOLYLINE
  5
12A
330
1F
100
AcDbEntity
  8
0
  6
Continuous
 62
     1
370
    25
100
AcDbPolyline
 90
       54
 70
   128
 43
0.0
 10
240.2083485358
 20
33.7674834393
 10
240.2092627937
 20
33.7669555636
 10
240.8679958747
 20
33.339150369
 10
241.4832752802
 20
32.8418054518
 10
242.0528559223
 20
32.2767355696
 10
242.574659463
 20
31.6460026012
 10
243.0467818978
 20
30.9519080228
 10
243.4675005031
 20
30.1969845102
 10
243.8352801224
 20
29.3839866975
 10
244.1487787678
 20
28.5158811256
 10
244.4068525166
 20
27.5958354174
 10
244.6085596857
 20
26.62720672
 10
244.7531642676
 20
25.6135294545
 10
244.8401386158
 20
24.5585024193
 10
244.8691653704
 20
23.4659752937
 10
244.8401386158
 20
22.3399345906
 10
244.7531642676
 20
21.1844891104
 10
244.6085596857
 20
20.0038549485
 10
244.4068525166
 20
18.8023401107
 10
244.1487787678
 20
17.5843287946
 10
243.8352801224
 20
16.3542653911
 10
243.4675005031
 20
15.1166382685
 10
243.0467818978
 20
13.8759633937
 10
242.574659463
 20
12.6367678549
 10
242.0528559223
 20
11.4035733421
 10
241.4832752802
 20
10.1808796485
 10
240.8679958747
 20
8.9731482507
 10
240.2092627937
 20
7.7847860296
 10
239.5094796827
 20
6.6201291902
 10
238.7711999744
 20
5.4834274388
 10
237.9971175714
 20
4.3788284769
 10
237.1900570165
 20
3.3103628664
 10
236.352963186
 20
2.2819293223
 10
235.4888905447
 20
1.2972804872
 10
234.6009919998
 20
0.3600092379
 10
233.6925073968
 20
-0.5264644246
 10
232.7667516976
 20
-1.3589058538
 10
231.8271028843
 20
-2.1342775614
 10
230.8769896335
 20
-2.8497503001
 10
229.9198788054
 20
-3.5027133873
 10
228.9592627937
 20
-4.0907842317
 10
227.998646782
 20
-4.6118170265
 10
227.0415359539
 20
-5.0639105796
 10
226.0914227031
 20
-5.4454152505
 10
225.1517738898
 20
-5.7549389701
 10
224.2260181906
 20
-5.9913523199
 10
223.3175335876
 20
-6.1537926533
 10
222.4296350427
 20
-6.2416672431
 10
221.5655624013
 20
-6.2546554444
 10
220.7284685709
 20
-6.1927098647
 10
219.9214080159
 20
-6.0560565367
 10
219.147325613
 20
-5.8451940936
 10
218.4090459047
 20
-5.5608919496
 10
217.7101770515
 20
-5.2047153679
  0
ARC
  5
12B
330
1F
100
AcDbEntity
  8
0
  6
Continuous
 62
     1
370
    25
100
AcDbCircle
 10
210.9158621371
 20
24.6988776896
 30
0.0
 40
34.68748939720042
100
AcDbArc
 50
306.8510160486
 51
353.0967249806
  0
ARC
  5
12C
330
1F
100
AcDbEntity
  8
0
  6
Continuous
 62
     1
370
    25
100
AcDbCircle
 10
216.2510766791
 20
21.6176637225
 30
0.0
 40
29.23179234051354
100
AcDbArc
 50
302.5096427597
 51
357.495733773
  0
LWPOLYLINE
  5
12D
330
1F
100
AcDbEntity
  8
0
  6
Continuous
 62
     1
370
    25
100
AcDbPolyline
 90
       35
 70
   128
 43
0.0
 10
245.3955889251
 20
23.8369495578
 10
245.5759426313
 20
23.2466244918
 10
245.778607782
 20
22.3815880169
 10
245.924018626
 20
21.4700608365
 10
246.0115257232
 20
20.5161140521
 10
246.0407382456
 20
19.5240082217
 10
246.0115257232
 20
18.4981743308
 10
245.924018626
 20
17.4431940025
 10
245.778607782
 20
16.3637790352
 10
245.5759426313
 20
15.264750358
 10
245.3169283258
 20
14.1510164999
 10
245.0027216861
 20
13.0275516666
 10
244.6347260354
 20
11.8993735248
 10
244.2145849316
 20
10.7715207919
 10
243.7441748269
 20
9.6490307321
 10
243.2255966869
 20
8.5369166584
 10
242.6611666076
 20
7.4401455422
 10
242.0534054707
 20
6.3636158297
 10
241.405027685
 20
5.3121355637
 10
240.718929063
 20
4.2904009106
 10
239.9981738877
 20
3.3029751851
 10
239.2459812268
 20
2.3542684705
 10
238.4657105553
 20
1.448517921
 10
237.6608467513
 20
0.5897688386
 10
236.8349845321
 20
-0.2181433949
 10
235.9918123987
 20
-0.9716104474
 10
235.1350961626
 20
-1.667267152
 10
234.2686621265
 20
-2.302006537
 10
233.3963799951
 20
-2.8729937023
 10
232.5221455922
 20
-3.3776784806
 10
231.6498634609
 20
-3.8138068271
 10
230.7834294248
 20
-4.1794308868
 10
229.9267131887
 20
-4.4729176939
 10
229.0835410553
 20
-4.692956465
 10
228.9942410888
 20
-4.7121151364
  0
ENDSEC
  0
SECTION
  2
OBJECTS
  0
DICTIONARY
  5
C
330
0
100
AcDbDictionary
281
     1
  3
ACAD_GROUP
350
D
  3
ACAD_LAYOUT
350
1A
  3
ACAD_MLINESTYLE
350
17
  3
ACAD_PLOTSETTINGS
350
19
  3
ACAD_PLOTSTYLENAME
350
E
  3
ACAD_SCALELIST
350
47
  3
DWGPROPS
350
12E
  0
DICTIONARY
  5
D
102
{ACAD_REACTORS
330
C
102
}
330
C
100
AcDbDictionary
281
     1
  0
DICTIONARY
  5
1A
102
{ACAD_REACTORS
330
C
102
}
330
C
100
AcDbDictionary
281
     1
  3
Layout1
350
1E
  3
Layout2
350
26
  3
Model
350
22
  0
DICTIONARY
  5
17
102
{ACAD_REACTORS
330
C
102
}
330
C
100
AcDbDictionary
281
     1
  3
Standard
350
18
  0
DICTIONARY
  5
19
102
{ACAD_REACTORS
330
C
102
}
330
C
100
AcDbDictionary
281
     1
  0
ACDBDICTIONARYWDFLT
  5
E
102
{ACAD_REACTORS
330
C
102
}
330
C
100
AcDbDictionary
281
     1
  3
Normal
350
F
100
AcDbDictionaryWithDefault
340
F
  0
DICTIONARY
  5
47
102
{ACAD_REACTORS
330
C
102
}
330
C
100
AcDbDictionary
281
     1
  3
A0
350
48
  3
A1
350
49
  3
A2
350
4A
  3
A3
350
4B
  3
A4
350
4C
  3
A5
350
4D
  3
A6
350
4E
  3
A7
350
4F
  3
A8
350
50
  3
A9
350
51
  3
B0
350
52
  3
B1
350
53
  3
B2
350
54
  3
B3
350
55
  3
B4
350
56
  3
B5
350
57
  3
B6
350
58
  3
B7
350
59
  3
B8
350
5A
  3
B9
350
5B
  3
C0
350
5C
  3
C1
350
5D
  3
C2
350
5E
  3
C3
350
5F
  3
C4
350
60
  3
C5
350
61
  3
C6
350
62
  3
C7
350
63
  3
C8
350
64
  3
C9
350
65
  3
D0
350
66
  3
D1
350
67
  3
D2
350
68
  0
XRECORD
  5
12E
102
{ACAD_REACTORS
330
C
102
}
330
C
100
AcDbXrecord
280
     1
  1
DWGPROPS COOKIE
  2

  3

  4

  6

  7

  8
b.kav
  9

300
=
301
=
302
=
303
=
304
=
305
=
306
=
307
=
308
=
309
=
 40
0.0
 41
2460710.392980915
 42
2460710.392981134
  1

 90
        0
  0
LAYOUT
  5
1E
102
{ACAD_REACTORS
330
1A
102
}
330
1A
100
AcDbPlotSettings
  1

  2
none_device
  4

  6

 40
0.0
 41
0.0
 42
0.0
 43
0.0
 44
0.0
 45
0.0
 46
0.0
 47
0.0
 48
0.0
 49
0.0
140
0.0
141
0.0
142
1.0
143
1.0
 70
   688
 72
     1
 73
     0
 74
     5
  7

 75
    16
147
1.0
148
0.0
149
0.0
100
AcDbLayout
  1
Layout1
 70
     1
 71
     1
 10
0.0
 20
0.0
 11
420.0
 21
297.0
 12
0.0
 22
0.0
 32
0.0
 14
1.0000000000E+20
 24
1.0000000000E+20
 34
1.0000000000E+20
 15
-1.0000000000E+20
 25
-1.0000000000E+20
 35
-1.0000000000E+20
146
0.0
 13
0.0
 23
0.0
 33
0.0
 16
1.0
 26
0.0
 36
0.0
 17
0.0
 27
1.0
 37
0.0
 76
     0
330
1B
  0
LAYOUT
  5
26
102
{ACAD_REACTORS
330
1A
102
}
330
1A
100
AcDbPlotSettings
  1

  2
none_device
  4

  6

 40
0.0
 41
0.0
 42
0.0
 43
0.0
 44
0.0
 45
0.0
 46
0.0
 47
0.0
 48
0.0
 49
0.0
140
0.0
141
0.0
142
1.0
143
1.0
 70
   688
 72
     1
 73
     0
 74
     5
  7

 75
    16
147
1.0
148
0.0
149
0.0
100
AcDbLayout
  1
Layout2
 70
     1
 71
     2
 10
0.0
 20
0.0
 11
0.0
 21
0.0
 12
0.0
 22
0.0
 32
0.0
 14
0.0
 24
0.0
 34
0.0
 15
0.0
 25
0.0
 35
0.0
146
0.0
 13
0.0
 23
0.0
 33
0.0
 16
1.0
 26
0.0
 36
0.0
 17
0.0
 27
1.0
 37
0.0
 76
     0
330
23
  0
LAYOUT
  5
22
102
{ACAD_REACTORS
330
1A
102
}
330
1A
100
AcDbPlotSettings
  1

  2
none_device
  4
Letter_(8.50_x_11.00_Inches)
  6

 40
6.35
 41
6.35
 42
6.35000508
 43
6.35000508
 44
215.9
 45
279.4
 46
0.0
 47
0.0
 48
0.0
 49
0.0
140
0.0
141
0.0
142
1.0
143
1.0
 70
  1712
 72
     1
 73
     0
 74
     0
  7

 75
     0
147
1.0
148
0.0
149
0.0
100
AcDbLayout
  1
Model
 70
     1
 71
     0
 10
0.0
 20
0.0
 11
279.4
 21
215.9
 12
0.0
 22
0.0
 32
0.0
 14
0.0
 24
0.0
 34
0.0
 15
279.4
 25
215.9
 35
0.0
146
0.0
 13
0.0
 23
0.0
 33
0.0
 16
1.0
 26
0.0
 36
0.0
 17
0.0
 27
1.0
 37
0.0
 76
     0
330
1F
331
29
  0
MLINESTYLE
  5
18
102
{ACAD_REACTORS
330
17
102
}
330
17
100
AcDbMlineStyle
  2
Standard
 70
     0
  3

 62
   256
 51
90.0
 52
90.0
 71
     2
 49
0.5
 62
   256
  6
BYLAYER
 49
-0.5
 62
   256
  6
BYLAYER
  0
ACDBPLACEHOLDER
  5
F
102
{ACAD_REACTORS
330
E
102
}
330
E
  0
SCALE
  5
48
102
{ACAD_REACTORS
330
47
102
}
330
47
100
AcDbScale
 70
     0
300
1:1
140
1.0
141
1.0
290
     1
  0
SCALE
  5
49
102
{ACAD_REACTORS
330
47
102
}
330
47
100
AcDbScale
 70
     0
300
1:2
140
1.0
141
2.0
290
     0
  0
SCALE
  5
4A
102
{ACAD_REACTORS
330
47
102
}
330
47
100
AcDbScale
 70
     0
300
1:4
140
1.0
141
4.0
290
     0
  0
SCALE
  5
4B
102
{ACAD_REACTORS
330
47
102
}
330
47
100
AcDbScale
 70
     0
300
1:5
140
1.0
141
5.0
290
     0
  0
SCALE
  5
4C
102
{ACAD_REACTORS
330
47
102
}
330
47
100
AcDbScale
 70
     0
300
1:8
140
1.0
141
8.0
290
     0
  0
SCALE
  5
4D
102
{ACAD_REACTORS
330
47
102
}
330
47
100
AcDbScale
 70
     0
300
1:10
140
1.0
141
10.0
290
     0
  0
SCALE
  5
4E
102
{ACAD_REACTORS
330
47
102
}
330
47
100
AcDbScale
 70
     0
300
1:16
140
1.0
141
16.0
290
     0
  0
SCALE
  5
4F
102
{ACAD_REACTORS
330
47
102
}
330
47
100
AcDbScale
 70
     0
300
1:20
140
1.0
141
20.0
290
     0
  0
SCALE
  5
50
102
{ACAD_REACTORS
330
47
102
}
330
47
100
AcDbScale
 70
     0
300
1:30
140
1.0
141
30.0
290
     0
  0
SCALE
  5
51
102
{ACAD_REACTORS
330
47
102
}
330
47
100
AcDbScale
 70
     0
300
1:40
140
1.0
141
40.0
290
     0
  0
SCALE
  5
52
102
{ACAD_REACTORS
330
47
102
}
330
47
100
AcDbScale
 70
     0
300
1:50
140
1.0
141
50.0
290
     0
  0
SCALE
  5
53
102
{ACAD_REACTORS
330
47
102
}
330
47
100
AcDbScale
 70
     0
300
1:100
140
1.0
141
100.0
290
     0
  0
SCALE
  5
54
102
{ACAD_REACTORS
330
47
102
}
330
47
100
AcDbScale
 70
     0
300
2:1
140
2.0
141
1.0
290
     0
  0
SCALE
  5
55
102
{ACAD_REACTORS
330
47
102
}
330
47
100
AcDbScale
 70
     0
300
4:1
140
4.0
141
1.0
290
     0
  0
SCALE
  5
56
102
{ACAD_REACTORS
330
47
102
}
330
47
100
AcDbScale
 70
     0
300
8:1
140
8.0
141
1.0
290
     0
  0
SCALE
  5
57
102
{ACAD_REACTORS
330
47
102
}
330
47
100
AcDbScale
 70
     0
300
10:1
140
10.0
141
1.0
290
     0
  0
SCALE
  5
58
102
{ACAD_REACTORS
330
47
102
}
330
47
100
AcDbScale
 70
     0
300
100:1
140
100.0
141
1.0
290
     0
  0
SCALE
  5
59
102
{ACAD_REACTORS
330
47
102
}
330
47
100
AcDbScale
 70
     0
300
1/128" = 1'-0"
140
0.0078125
141
12.0
290
     0
  0
SCALE
  5
5A
102
{ACAD_REACTORS
330
47
102
}
330
47
100
AcDbScale
 70
     0
300
1/64" = 1'-0"
140
0.015625
141
12.0
290
     0
  0
SCALE
  5
5B
102
{ACAD_REACTORS
330
47
102
}
330
47
100
AcDbScale
 70
     0
300
1/32" = 1'-0"
140
0.03125
141
12.0
290
     0
  0
SCALE
  5
5C
102
{ACAD_REACTORS
330
47
102
}
330
47
100
AcDbScale
 70
     0
300
1/16" = 1'-0"
140
0.0625
141
12.0
290
     0
  0
SCALE
  5
5D
102
{ACAD_REACTORS
330
47
102
}
330
47
100
AcDbScale
 70
     0
300
3/32" = 1'-0"
140
0.09375
141
12.0
290
     0
  0
SCALE
  5
5E
102
{ACAD_REACTORS
330
47
102
}
330
47
100
AcDbScale
 70
     0
300
1/8" = 1'-0"
140
0.125
141
12.0
290
     0
  0
SCALE
  5
5F
102
{ACAD_REACTORS
330
47
102
}
330
47
100
AcDbScale
 70
     0
300
3/16" = 1'-0"
140
0.1875
141
12.0
290
     0
  0
SCALE
  5
60
102
{ACAD_REACTORS
330
47
102
}
330
47
100
AcDbScale
 70
     0
300
1/4" = 1'-0"
140
0.25
141
12.0
290
     0
  0
SCALE
  5
61
102
{ACAD_REACTORS
330
47
102
}
330
47
100
AcDbScale
 70
     0
300
3/8" = 1'-0"
140
0.375
141
12.0
290
     0
  0
SCALE
  5
62
102
{ACAD_REACTORS
330
47
102
}
330
47
100
AcDbScale
 70
     0
300
1/2" = 1'-0"
140
0.5
141
12.0
290
     0
  0
SCALE
  5
63
102
{ACAD_REACTORS
330
47
102
}
330
47
100
AcDbScale
 70
     0
300
3/4" = 1'-0"
140
0.75
141
12.0
290
     0
  0
SCALE
  5
64
102
{ACAD_REACTORS
330
47
102
}
330
47
100
AcDbScale
 70
     0
300
1" = 1'-0"
140
1.0
141
12.0
290
     0
  0
SCALE
  5
65
102
{ACAD_REACTORS
330
47
102
}
330
47
100
AcDbScale
 70
     0
300
1-1/2" = 1'-0"
140
1.5
141
12.0
290
     0
  0
SCALE
  5
66
102
{ACAD_REACTORS
330
47
102
}
330
47
100
AcDbScale
 70
     0
300
3" = 1'-0"
140
3.0
141
12.0
290
     0
  0
SCALE
  5
67
102
{ACAD_REACTORS
330
47
102
}
330
47
100
AcDbScale
 70
     0
300
6" = 1'-0"
140
6.0
141
12.0
290
     0
  0
SCALE
  5
68
102
{ACAD_REACTORS
330
47
102
}
330
47
100
AcDbScale
 70
     0
300
1'-0" = 1'-0"
140
12.0
141
12.0
290
     0
  0
ENDSEC
  0
EOF
